  0
SECTION
  2
HEADER
  9
$ACADVER
  1
AC1015
  9
$ACADMAINTVER
 70
     6
  9
$DWGCODEPAGE
  3
ANSI_1254
  9
$INSBASE
 10
0.0
 20
0.0
 30
0.0
  9
$EXTMIN
 10
0.0
 20
0.0
 30
0.0
  9
$EXTMAX
 10
279.4
 20
215.9
 30
0.0
  9
$LIMMIN
 10
0.0
 20
0.0
  9
$LIMMAX
 10
279.4
 20
215.9
  9
$ORTHOMODE
 70
     0
  9
$REGENMODE
 70
     1
  9
$FILLMODE
 70
     1
  9
$QTEXTMODE
 70
     0
  9
$MIRRTEXT
 70
     1
  9
$LTSCALE
 40
1.0
  9
$ATTMODE
 70
     1
  9
$TEXTSIZE
 40
3.5
  9
$TRACEWID
 40
1.0
  9
$TEXTSTYLE
  7
Standard
  9
$CLAYER
  8
0
  9
$CELTYPE
  6
ByLayer
  9
$CECOLOR
 62
   256
  9
$CELTSCALE
 40
1.0
  9
$DISPSILH
 70
     0
  9
$DIMSCALE
 40
1.0
  9
$DIMASZ
 40
3.5
  9
$DIMEXO
 40
1.0
  9
$DIMDLI
 40
3.75
  9
$DIMRND
 40
0.0
  9
$DIMDLE
 40
0.0
  9
$DIMEXE
 40
1.0
  9
$DIMTP
 40
0.0
  9
$DIMTM
 40
0.0
  9
$DIMTXT
 40
3.5
  9
$DIMCEN
 40
2.5
  9
$DIMTSZ
 40
0.0
  9
$DIMTOL
 70
     0
  9
$DIMLIM
 70
     0
  9
$DIMTIH
 70
     1
  9
$DIMTOH
 70
     1
  9
$DIMSE1
 70
     0
  9
$DIMSE2
 70
     0
  9
$DIMTAD
 70
     1
  9
$DIMZIN
 70
     0
  9
$DIMBLK
  1

  9
$DIMASO
 70
     1
  9
$DIMSHO
 70
     1
  9
$DIMPOST
  1

  9
$DIMAPOST
  1

  9
$DIMALT
 70
     0
  9
$DIMALTD
 70
     3
  9
$DIMALTF
 40
0.0393700787
  9
$DIMLFAC
 40
1.0
  9
$DIMTOFL
 70
     1
  9
$DIMTVP
 40
0.0
  9
$DIMTIX
 70
     0
  9
$DIMSOXD
 70
     0
  9
$DIMSAH
 70
     0
  9
$DIMBLK1
  1

  9
$DIMBLK2
  1

  9
$DIMSTYLE
  2
ISO-25
  9
$DIMCLRD
 70
     0
  9
$DIMCLRE
 70
     0
  9
$DIMCLRT
 70
     0
  9
$DIMTFAC
 40
1.0
  9
$DIMGAP
 40
1.524
  9
$DIMJUST
 70
     0
  9
$DIMSD1
 70
     0
  9
$DIMSD2
 70
     0
  9
$DIMTOLJ
 70
     0
  9
$DIMTZIN
 70
     0
  9
$DIMALTZ
 70
     0
  9
$DIMALTTZ
 70
     0
  9
$DIMUPT
 70
     0
  9
$DIMDEC
 70
     2
  9
$DIMTDEC
 70
     2
  9
$DIMALTU
 70
     2
  9
$DIMALTTD
 70
     3
  9
$DIMTXSTY
  7
Standard
  9
$DIMAUNIT
 70
     0
  9
$DIMADEC
 70
     2
  9
$DIMALTRND
 40
0.0
  9
$DIMAZIN
 70
     0
  9
$DIMDSEP
 70
    44
  9
$DIMATFIT
 70
     3
  9
$DIMFRAC
 70
     0
  9
$DIMLDRBLK
  1

  9
$DIMLUNIT
 70
     2
  9
$DIMLWD
 70
    -2
  9
$DIMLWE
 70
    -2
  9
$DIMTMOVE
 70
     0
  9
$LUNITS
 70
     2
  9
$LUPREC
 70
     2
  9
$SKETCHINC
 40
1.0
  9
$FILLETRAD
 40
10.0
  9
$AUNITS
 70
     0
  9
$AUPREC
 70
     2
  9
$MENU
  1
.
  9
$ELEVATION
 40
0.0
  9
$PELEVATION
 40
0.0
  9
$THICKNESS
 40
0.0
  9
$LIMCHECK
 70
     0
  9
$CHAMFERA
 40
0.0
  9
$CHAMFERB
 40
0.0
  9
$CHAMFERC
 40
0.0
  9
$CHAMFERD
 40
0.0
  9
$SKPOLY
 70
     0
  9
$TDCREATE
 40
2459935.709202674
  9
$TDUCREATE
 40
2459935.584202674
  9
$TDUPDATE
 40
2459935.709202928
  9
$TDUUPDATE
 40
2459935.584202928
  9
$TDINDWG
 40
0.0000000116
  9
$TDUSRTIMER
 40
0.0000000116
  9
$USRTIMER
 70
     1
  9
$ANGBASE
 50
0.0
  9
$ANGDIR
 70
     0
  9
$PDMODE
 70
     0
  9
$PDSIZE
 40
-1.0
  9
$PLINEWID
 40
0.0
  9
$SPLFRAME
 70
     0
  9
$SPLINETYPE
 70
     6
  9
$SPLINESEGS
 70
     8
  9
$HANDSEED
  5
14E
  9
$SURFTAB1
 70
     6
  9
$SURFTAB2
 70
     6
  9
$SURFTYPE
 70
     6
  9
$SURFU
 70
     6
  9
$SURFV
 70
     6
  9
$UCSBASE
  2

  9
$UCSNAME
  2

  9
$UCSORG
 10
0.0
 20
0.0
 30
0.0
  9
$UCSXDIR
 10
1.0
 20
0.0
 30
0.0
  9
$UCSYDIR
 10
0.0
 20
1.0
 30
0.0
  9
$UCSORTHOREF
  2

  9
$UCSORTHOVIEW
 70
     0
  9
$UCSORGTOP
 10
0.0
 20
0.0
 30
0.0
  9
$UCSORGBOTTOM
 10
0.0
 20
0.0
 30
0.0
  9
$UCSORGLEFT
 10
0.0
 20
0.0
 30
0.0
  9
$UCSORGRIGHT
 10
0.0
 20
0.0
 30
0.0
  9
$UCSORGFRONT
 10
0.0
 20
0.0
 30
0.0
  9
$UCSORGBACK
 10
0.0
 20
0.0
 30
0.0
  9
$PUCSBASE
  2

  9
$PUCSNAME
  2

  9
$PUCSORG
 10
0.0
 20
0.0
 30
0.0
  9
$PUCSXDIR
 10
1.0
 20
0.0
 30
0.0
  9
$PUCSYDIR
 10
0.0
 20
1.0
 30
0.0
  9
$PUCSORTHOREF
  2

  9
$PUCSORTHOVIEW
 70
     0
  9
$PUCSORGTOP
 10
0.0
 20
0.0
 30
0.0
  9
$PUCSORGBOTTOM
 10
0.0
 20
0.0
 30
0.0
  9
$PUCSORGLEFT
 10
0.0
 20
0.0
 30
0.0
  9
$PUCSORGRIGHT
 10
0.0
 20
0.0
 30
0.0
  9
$PUCSORGFRONT
 10
0.0
 20
0.0
 30
0.0
  9
$PUCSORGBACK
 10
0.0
 20
0.0
 30
0.0
  9
$USERI1
 70
     0
  9
$USERI2
 70
     0
  9
$USERI3
 70
     0
  9
$USERI4
 70
     0
  9
$USERI5
 70
     0
  9
$USERR1
 40
0.0
  9
$USERR2
 40
0.0
  9
$USERR3
 40
0.0
  9
$USERR4
 40
0.0
  9
$USERR5
 40
0.0
  9
$WORLDVIEW
 70
     1
  9
$SHADEDGE
 70
     3
  9
$SHADEDIF
 70
    70
  9
$TILEMODE
 70
     1
  9
$MAXACTVP
 70
    64
  9
$PINSBASE
 10
0.0
 20
0.0
 30
0.0
  9
$PLIMCHECK
 70
     0
  9
$PEXTMIN
 10
1.0000000000E+20
 20
1.0000000000E+20
 30
1.0000000000E+20
  9
$PEXTMAX
 10
-1.0000000000E+20
 20
-1.0000000000E+20
 30
-1.0000000000E+20
  9
$PLIMMIN
 10
0.0
 20
0.0
  9
$PLIMMAX
 10
420.0
 20
297.0
  9
$UNITMODE
 70
     0
  9
$VISRETAIN
 70
     1
  9
$PLINEGEN
 70
     0
  9
$PSLTSCALE
 70
     1
  9
$TREEDEPTH
 70
  3020
  9
$CMLSTYLE
  2
Standard
  9
$CMLJUST
 70
     0
  9
$CMLSCALE
 40
20.0
  9
$PROXYGRAPHICS
 70
     1
  9
$MEASUREMENT
 70
     1
  9
$CELWEIGHT
370
    -1
  9
$ENDCAPS
280
     0
  9
$JOINSTYLE
280
     0
  9
$LWDISPLAY
290
     1
  9
$INSUNITS
 70
     4
  9
$HYPERLINKBASE
  1

  9
$STYLESHEET
  1

  9
$XEDIT
290
     1
  9
$CEPSNTYPE
380
     0
  9
$PSTYLEMODE
290
     1
  9
$FINGERPRINTGUID
  2
{89729b6f-2d2a-4ac9-b1c8-e62d597cda1e}
  9
$VERSIONGUID
  2
{FAEB1C32-E019-11D5-929B-00C0DF256EC4}
  9
$EXTNAMES
290
     1
  9
$PSVPSCALE
 40
0.0
  9
$OLESTARTUP
290
     0
  0
ENDSEC
  0
SECTION
  2
CLASSES
  0
CLASS
  1
ACDBDICTIONARYWDFLT
  2
AcDbDictionaryWithDefault
  3
ObjectDBX Classes
 90
        0
280
     0
281
     0
  0
CLASS
  1
VISUALSTYLE
  2
AcDbVisualStyle
  3
ObjectDBX Classes
 90
     4095
280
     0
281
     0
  0
CLASS
  1
MATERIAL
  2
AcDbMaterial
  3
ObjectDBX Classes
 90
     1153
280
     0
281
     0
  0
CLASS
  1
SCALE
  2
AcDbScale
  3
ObjectDBX Classes
 90
     1153
280
     0
281
     0
  0
CLASS
  1
TABLESTYLE
  2
AcDbTableStyle
  3
ObjectDBX Classes
 90
     4095
280
     0
281
     0
  0
CLASS
  1
MLEADERSTYLE
  2
AcDbMLeaderStyle
  3
ACDB_MLEADERSTYLE_CLASS
 90
     4095
280
     0
281
     0
  0
CLASS
  1
SUN
  2
AcDbSun
  3
SCENEOE
 90
     1153
280
     0
281
     0
  0
CLASS
  1
ACDBPLACEHOLDER
  2
AcDbPlaceHolder
  3
ObjectDBX Classes
 90
        0
280
     0
281
     0
  0
CLASS
  1
LAYOUT
  2
AcDbLayout
  3
ObjectDBX Classes
 90
        0
280
     0
281
     0
  0
ENDSEC
  0
SECTION
  2
TABLES
  0
TABLE
  2
VPORT
  5
8
330
0
100
AcDbSymbolTable
 70
     1
  0
VPORT
  5
29
330
8
100
AcDbSymbolTableRecord
100
AcDbViewportTableRecord
  2
*Active
 70
     0
 10
0.0
 20
0.0
 11
1.0
 21
1.0
 12
139.7
 22
107.95
 13
0.0
 23
0.0
 14
10.0
 24
10.0
 15
10.0
 25
10.0
 16
0.0
 26
0.0
 36
1.0
 17
0.0
 27
0.0
 37
0.0
 40
215.9
 41
1.2941176471
 42
50.0
 43
0.0
 44
0.0
 50
0.0
 51
0.0
 71
     0
 72
  2000
 73
     1
 74
     3
 75
     0
 76
     0
 77
     0
 78
     0
281
     0
 65
     1
110
0.0
120
0.0
130
0.0
111
1.0
121
0.0
131
0.0
112
0.0
122
1.0
132
0.0
 79
     0
146
0.0
  0
ENDTAB
  0
TABLE
  2
LTYPE
  5
5
330
0
100
AcDbSymbolTable
 70
     6
  0
LTYPE
  5
14
330
5
100
AcDbSymbolTableRecord
100
AcDbLinetypeTableRecord
  2
ByBlock
 70
     0
  3

 72
    65
 73
     0
 40
0.0
  0
LTYPE
  5
15
330
5
100
AcDbSymbolTableRecord
100
AcDbLinetypeTableRecord
  2
ByLayer
 70
     0
  3

 72
    65
 73
     0
 40
0.0
  0
LTYPE
  5
16
330
5
100
AcDbSymbolTableRecord
100
AcDbLinetypeTableRecord
  2
Continuous
 70
     0
  3
Solid line
 72
    65
 73
     0
 40
0.0
  0
LTYPE
  5
6E
330
5
100
AcDbSymbolTableRecord
100
AcDbLinetypeTableRecord
  2
HIDDEN
 70
     0
  3
Hidden __ __ __ __ __ __ __ __ __ __ __ __ __ __
 72
    65
 73
     2
 40
1.905
 49
1.27
 74
     0
 49
-0.635
 74
     0
  0
LTYPE
  5
6F
330
5
100
AcDbSymbolTableRecord
100
AcDbLinetypeTableRecord
  2
PHANTOM
 70
     0
  3
Phantom ______  __  __  ______  __  __  ______
 72
    65
 73
     6
 40
12.7
 49
6.35
 74
     0
 49
-1.27
 74
     0
 49
1.27
 74
     0
 49
-1.27
 74
     0
 49
1.27
 74
     0
 49
-1.27
 74
     0
  0
LTYPE
  5
70
330
5
100
AcDbSymbolTableRecord
100
AcDbLinetypeTableRecord
  2
CENTER
 70
     0
  3
Center ____ _ ____ _ ____ _ ____ _ ____ _ ____
 72
    65
 73
     4
 40
10.16
 49
6.35
 74
     0
 49
-1.27
 74
     0
 49
1.27
 74
     0
 49
-1.27
 74
     0
  0
LTYPE
  5
71
330
5
100
AcDbSymbolTableRecord
100
AcDbLinetypeTableRecord
  2
CENTERX2
 70
     0
  3
Center (2x) ________  __  ________  __  _____
 72
    65
 73
     4
 40
20.32
 49
12.7
 74
     0
 49
-2.54
 74
     0
 49
2.54
 74
     0
 49
-2.54
 74
     0
  0
LTYPE
  5
72
330
5
100
AcDbSymbolTableRecord
100
AcDbLinetypeTableRecord
  2
DOT2
 70
     0
  3
Dot (.5x) ........................................
 72
    65
 73
     2
 40
0.635
 49
0.0
 74
     0
 49
-0.635
 74
     0
  0
ENDTAB
  0
TABLE
  2
LAYER
  5
2
330
0
100
AcDbSymbolTable
 70
    17
  0
LAYER
  5
10
330
2
100
AcDbSymbolTableRecord
100
AcDbLayerTableRecord
  2
0
 70
     0
 62
     7
  6
Continuous
370
    -3
390
F
  0
LAYER
  5
73
330
2
100
AcDbSymbolTableRecord
100
AcDbLayerTableRecord
  2
FORMAT
 70
     0
 62
     7
  6
Continuous
370
    -3
390
F
  0
LAYER
  5
74
330
2
100
AcDbSymbolTableRecord
100
AcDbLayerTableRecord
  2
YARDIMCI_GEOMETRI
 70
     0
 62
    -6
  6
Continuous
290
     0
370
    -3
390
F
  0
LAYER
  5
75
330
2
100
AcDbSymbolTableRecord
100
AcDbLayerTableRecord
  2
SAYFA_CERCEVESI
 70
     0
 62
     7
  6
Continuous
370
    25
390
F
  0
LAYER
  5
76
330
2
100
AcDbSymbolTableRecord
100
AcDbLayerTableRecord
  2
ANTET
 70
     0
 62
     7
  6
Continuous
370
    -3
390
F
  0
LAYER
  5
77
330
2
100
AcDbSymbolTableRecord
100
AcDbLayerTableRecord
  2
OLCU
 70
     0
 62
   150
  6
Continuous
370
    -3
390
F
  0
LAYER
  5
78
330
2
100
AcDbSymbolTableRecord
100
AcDbLayerTableRecord
  2
METIN
 70
     0
 62
    96
  6
Continuous
370
    -3
390
F
  0
LAYER
  5
79
330
2
100
AcDbSymbolTableRecord
100
AcDbLayerTableRecord
  2
BALON
 70
     0
 62
     5
  6
Continuous
370
    -3
390
F
  0
LAYER
  5
7A
330
2
100
AcDbSymbolTableRecord
100
AcDbLayerTableRecord
  2
VURGU
 70
     0
 62
     7
  6
Continuous
370
    -3
390
F
  0
LAYER
  5
7B
330
2
100
AcDbSymbolTableRecord
100
AcDbLayerTableRecord
  2
SILIK
 70
     0
 62
     7
  6
Continuous
370
    -3
390
F
  0
LAYER
  5
7C
330
2
100
AcDbSymbolTableRecord
100
AcDbLayerTableRecord
  2
MODEL
 70
     0
 62
     7
  6
Continuous
370
    -3
390
F
  0
LAYER
  5
7D
330
2
100
AcDbSymbolTableRecord
100
AcDbLayerTableRecord
  2
DETAYLANDıRMA
 70
     0
 62
   190
  6
Continuous
370
    -3
390
F
  0
LAYER
  5
7E
330
2
100
AcDbSymbolTableRecord
100
AcDbLayerTableRecord
  2
TOLERANS
 70
     0
 62
   230
  6
Continuous
370
    -3
390
F
  0
LAYER
  5
7F
330
2
100
AcDbSymbolTableRecord
100
AcDbLayerTableRecord
  2
MERKEZ_CIZGILERI
 70
     0
 62
    30
  6
Continuous
370
    -3
390
F
  0
LAYER
  5
80
330
2
100
AcDbSymbolTableRecord
100
AcDbLayerTableRecord
  2
KESIT-DETAY_CIZGILERI
 70
     0
 62
     7
  6
Continuous
370
    -3
390
F
  0
LAYER
  5
81
330
2
100
AcDbSymbolTableRecord
100
AcDbLayerTableRecord
  2
\U+041E\U+0421\U+0415\U+0412\U+042B\U+0415
 70
     0
 62
     7
  6
Continuous
370
    -3
390
F
  0
LAYER
  5
82
330
2
100
AcDbSymbolTableRecord
100
AcDbLayerTableRecord
  2
\U+0412\U+041E\U+0414\U+042F\U+041D\U+042B\U+0415_\U+0417\U+041D\U+0410\U+041A\U+0418
 70
     0
 62
    11
  6
Continuous
370
    -3
390
F
  0
ENDTAB
  0
TABLE
  2
STYLE
  5
3
330
0
100
AcDbSymbolTable
 70
     1
  0
STYLE
  5
11
330
3
100
AcDbSymbolTableRecord
100
AcDbTextStyleTableRecord
  2
Standard
 70
     0
 40
0.0
 41
1.0
 50
0.0
 71
     0
 42
3.5
  3
txt
  4

  0
ENDTAB
  0
TABLE
  2
VIEW
  5
6
330
0
100
AcDbSymbolTable
 70
     0
  0
ENDTAB
  0
TABLE
  2
UCS
  5
7
330
0
100
AcDbSymbolTable
 70
     0
  0
ENDTAB
  0
TABLE
  2
APPID
  5
9
330
0
100
AcDbSymbolTable
 70
     1
  0
APPID
  5
12
330
9
100
AcDbSymbolTableRecord
100
AcDbRegAppTableRecord
  2
ACAD
 70
     0
  0
ENDTAB
  0
TABLE
  2
DIMSTYLE
  5
A
330
0
100
AcDbSymbolTable
 70
     1
100
AcDbDimStyleTable
  0
DIMSTYLE
105
27
330
A
100
AcDbSymbolTableRecord
100
AcDbDimStyleTableRecord
  2
ISO-25
 70
     0
 41
2.5
 42
0.625
 43
3.75
 44
1.25
 73
     0
 74
     0
 77
     1
 78
     8
140
2.5
141
2.5
143
0.0393700787
147
0.625
171
     3
172
     1
178
     0
271
     2
272
     2
274
     3
278
    44
283
     0
284
     8
340
11
  0
ENDTAB
  0
TABLE
  2
BLOCK_RECORD
  5
1
330
0
100
AcDbSymbolTable
 70
     2
  0
BLOCK_RECORD
  5
1F
330
1
100
AcDbSymbolTableRecord
100
AcDbBlockTableRecord
  2
*Model_Space
340
22
  0
BLOCK_RECORD
  5
1B
330
1
100
AcDbSymbolTableRecord
100
AcDbBlockTableRecord
  2
*Paper_Space
340
1E
  0
BLOCK_RECORD
  5
23
330
1
100
AcDbSymbolTableRecord
100
AcDbBlockTableRecord
  2
*Paper_Space0
340
26
  0
BLOCK_RECORD
  5
8C
330
1
100
AcDbSymbolTableRecord
100
AcDbBlockTableRecord
  2
SW_CENTERMARKSYMBOL_0
340
0
102
{BLKREFS
331
97
102
}
  0
ENDTAB
  0
ENDSEC
  0
SECTION
  2
BLOCKS
  0
BLOCK
  5
20
330
1F
100
AcDbEntity
  8
0
100
AcDbBlockBegin
  2
*Model_Space
 70
     0
 10
0.0
 20
0.0
 30
0.0
  3
*Model_Space
  1

  0
ENDBLK
  5
21
330
1F
100
AcDbEntity
  8
0
100
AcDbBlockEnd
  0
BLOCK
  5
1C
330
1B
100
AcDbEntity
 67
     1
  8
0
100
AcDbBlockBegin
  2
*Paper_Space
 70
     0
 10
0.0
 20
0.0
 30
0.0
  3
*Paper_Space
  1

  0
ENDBLK
  5
1D
330
1B
100
AcDbEntity
 67
     1
  8
0
100
AcDbBlockEnd
  0
BLOCK
  5
24
330
23
100
AcDbEntity
  8
0
100
AcDbBlockBegin
  2
*Paper_Space0
 70
     0
 10
0.0
 20
0.0
 30
0.0
  3
*Paper_Space0
  1

  0
ENDBLK
  5
25
330
23
100
AcDbEntity
  8
0
100
AcDbBlockEnd
  0
BLOCK
  5
8D
330
8C
100
AcDbEntity
  8
0
100
AcDbBlockBegin
  2
SW_CENTERMARKSYMBOL_0
 70
     0
 10
0.0
 20
0.0
 30
0.0
  3
SW_CENTERMARKSYMBOL_0
  1

  0
LINE
  5
8F
330
8C
100
AcDbEntity
  8
FORMAT
 62
     0
100
AcDbLine
 10
0.0
 20
0.0
 30
0.0
 11
0.0
 21
2.5
 31
0.0
  0
LINE
  5
90
330
8C
100
AcDbEntity
  8
FORMAT
 62
     0
100
AcDbLine
 10
0.0
 20
0.0
 30
0.0
 11
-2.5
 21
0.0
 31
0.0
  0
LINE
  5
91
330
8C
100
AcDbEntity
  8
FORMAT
 62
     0
100
AcDbLine
 10
0.0
 20
0.0
 30
0.0
 11
0.0
 21
-2.5
 31
0.0
  0
LINE
  5
92
330
8C
100
AcDbEntity
  8
FORMAT
 62
     0
100
AcDbLine
 10
0.0
 20
0.0
 30
0.0
 11
2.5
 21
0.0
 31
0.0
  0
LINE
  5
93
330
8C
100
AcDbEntity
  8
FORMAT
 62
     0
100
AcDbLine
 10
0.0
 20
5.0
 30
0.0
 11
0.0
 21
27.5
 31
0.0
  0
LINE
  5
94
330
8C
100
AcDbEntity
  8
FORMAT
 62
     0
100
AcDbLine
 10
-5.0
 20
0.0
 30
0.0
 11
-27.5
 21
0.0
 31
0.0
  0
LINE
  5
95
330
8C
100
AcDbEntity
  8
FORMAT
 62
     0
100
AcDbLine
 10
0.0
 20
-5.0
 30
0.0
 11
0.0
 21
-27.5
 31
0.0
  0
LINE
  5
96
330
8C
100
AcDbEntity
  8
FORMAT
 62
     0
100
AcDbLine
 10
5.0
 20
0.0
 30
0.0
 11
27.5
 21
0.0
 31
0.0
  0
ENDBLK
  5
8E
330
8C
100
AcDbEntity
  8
0
100
AcDbBlockEnd
  0
ENDSEC
  0
SECTION
  2
ENTITIES
  0
CIRCLE
  5
83
330
1F
100
AcDbEntity
  8
0
  6
Continuous
 62
     7
370
    25
100
AcDbCircle
 10
139.8323425481
 20
108.7440552885
 30
0.0
 40
20.40000000000001
  0
CIRCLE
  5
84
330
1F
100
AcDbEntity
  8
0
  6
Continuous
 62
     7
370
    25
100
AcDbCircle
 10
139.8323425481
 20
108.7440552885
 30
0.0
 40
25.00000000000001
  0
CIRCLE
  5
85
330
1F
100
AcDbEntity
  8
0
  6
Continuous
 62
     7
370
    25
100
AcDbCircle
 10
139.8323425481
 20
108.7440552885
 30
0.0
 40
16.00000000000003
  0
LINE
  5
86
330
1F
100
AcDbEntity
  8
0
  6
Continuous
 62
     7
370
    25
100
AcDbLine
 10
139.8323425481
 20
71.2162877911
 30
0.0
 11
107.3323425481
 21
89.9801715398
 31
0.0
  0
LINE
  5
87
330
1F
100
AcDbEntity
  8
0
  6
Continuous
 62
     7
370
    25
100
AcDbLine
 10
107.3323425481
 20
89.9801715398
 30
0.0
 11
107.3323425481
 21
127.5079390371
 31
0.0
  0
LINE
  5
88
330
1F
100
AcDbEntity
  8
0
  6
Continuous
 62
     7
370
    25
100
AcDbLine
 10
107.3323425481
 20
127.5079390371
 30
0.0
 11
139.8323425481
 21
146.2718227858
 31
0.0
  0
LINE
  5
89
330
1F
100
AcDbEntity
  8
0
  6
Continuous
 62
     7
370
    25
100
AcDbLine
 10
139.8323425481
 20
146.2718227858
 30
0.0
 11
172.3323425481
 21
127.5079390371
 31
0.0
  0
LINE
  5
8A
330
1F
100
AcDbEntity
  8
0
  6
Continuous
 62
     7
370
    25
100
AcDbLine
 10
172.3323425481
 20
127.5079390371
 30
0.0
 11
172.3323425481
 21
89.9801715398
 31
0.0
  0
LINE
  5
8B
330
1F
100
AcDbEntity
  8
0
  6
Continuous
 62
     7
370
    25
100
AcDbLine
 10
172.3323425481
 20
89.9801715398
 30
0.0
 11
139.8323425481
 21
71.2162877911
 31
0.0
  0
INSERT
  5
97
330
1F
100
AcDbEntity
  8
FORMAT
 62
     7
100
AcDbBlockReference
  2
SW_CENTERMARKSYMBOL_0
 10
139.8323425481
 20
108.7440552885
 30
0.0
  0
LINE
  5
98
330
1F
100
AcDbEntity
  8
0
  6
Continuous
 62
     7
370
    25
100
AcDbLine
 10
164.8323425481
 20
216.3831743202
 30
0.0
 11
164.8323425481
 21
265.3831743202
 31
0.0
  0
LINE
  5
99
330
1F
100
AcDbEntity
  8
0
  6
Continuous
 62
     7
370
    25
100
AcDbLine
 10
114.8323425481
 20
265.3831743202
 30
0.0
 11
114.8323425481
 21
216.3831743202
 31
0.0
  0
LINE
  5
9A
330
1F
100
AcDbEntity
  8
0
  6
Continuous
 62
     7
370
    25
100
AcDbLine
 10
163.7323425481
 20
177.3831743202
 30
0.0
 11
163.7323425481
 21
177.5831743202
 31
0.0
  0
LINE
  5
9B
330
1F
100
AcDbEntity
  8
0
  6
Continuous
 62
     7
370
    25
100
AcDbLine
 10
115.9323425481
 20
177.5831743202
 30
0.0
 11
115.9323425481
 21
177.3831743202
 31
0.0
  0
LINE
  5
9C
330
1F
100
AcDbEntity
  8
0
  6
Continuous
 62
     7
370
    25
100
AcDbLine
 10
163.7323425481
 20
177.5831743202
 30
0.0
 11
162.0002917405
 21
178.5831743202
 31
0.0
  0
LINE
  5
9D
330
1F
100
AcDbEntity
  8
0
  6
Continuous
 62
     7
370
    25
100
AcDbLine
 10
117.6643933556
 20
178.5831743202
 30
0.0
 11
115.9323425481
 21
177.5831743202
 31
0.0
  0
LINE
  5
9E
330
1F
100
AcDbEntity
  8
0
  6
Continuous
 62
     7
370
    25
100
AcDbLine
 10
115.9323425481
 20
179.5831743202
 30
0.0
 11
117.6643933556
 21
178.5831743202
 31
0.0
  0
LINE
  5
9F
330
1F
100
AcDbEntity
  8
0
  6
Continuous
 62
     7
370
    25
100
AcDbLine
 10
162.0002917405
 20
178.5831743202
 30
0.0
 11
163.7323425481
 21
179.5831743202
 31
0.0
  0
LINE
  5
A0
330
1F
100
AcDbEntity
  8
0
  6
Continuous
 62
     7
370
    25
100
AcDbLine
 10
163.7323425481
 20
179.5831743202
 30
0.0
 11
162.0002917405
 21
180.5831743202
 31
0.0
  0
LINE
  5
A1
330
1F
100
AcDbEntity
  8
0
  6
Continuous
 62
     7
370
    25
100
AcDbLine
 10
117.6643933556
 20
180.5831743202
 30
0.0
 11
115.9323425481
 21
179.5831743202
 31
0.0
  0
LINE
  5
A2
330
1F
100
AcDbEntity
  8
0
  6
Continuous
 62
     7
370
    25
100
AcDbLine
 10
115.9323425481
 20
181.5831743202
 30
0.0
 11
117.6643933556
 21
180.5831743202
 31
0.0
  0
LINE
  5
A3
330
1F
100
AcDbEntity
  8
0
  6
Continuous
 62
     7
370
    25
100
AcDbLine
 10
162.0002917405
 20
180.5831743202
 30
0.0
 11
163.7323425481
 21
181.5831743202
 31
0.0
  0
LINE
  5
A4
330
1F
100
AcDbEntity
  8
0
  6
Continuous
 62
     7
370
    25
100
AcDbLine
 10
163.7323425481
 20
181.5831743202
 30
0.0
 11
162.0002917405
 21
182.5831743202
 31
0.0
  0
LINE
  5
A5
330
1F
100
AcDbEntity
  8
0
  6
Continuous
 62
     7
370
    25
100
AcDbLine
 10
117.6643933556
 20
182.5831743202
 30
0.0
 11
115.9323425481
 21
181.5831743202
 31
0.0
  0
LINE
  5
A6
330
1F
100
AcDbEntity
  8
0
  6
Continuous
 62
     7
370
    25
100
AcDbLine
 10
115.9323425481
 20
183.5831743202
 30
0.0
 11
117.6643933556
 21
182.5831743202
 31
0.0
  0
LINE
  5
A7
330
1F
100
AcDbEntity
  8
0
  6
Continuous
 62
     7
370
    25
100
AcDbLine
 10
162.0002917405
 20
182.5831743202
 30
0.0
 11
163.7323425481
 21
183.5831743202
 31
0.0
  0
LINE
  5
A8
330
1F
100
AcDbEntity
  8
0
  6
Continuous
 62
     7
370
    25
100
AcDbLine
 10
163.7323425481
 20
183.5831743202
 30
0.0
 11
163.7323425481
 21
200.3831743202
 31
0.0
  0
LINE
  5
A9
330
1F
100
AcDbEntity
  8
0
  6
Continuous
 62
     7
370
    25
100
AcDbLine
 10
115.9323425481
 20
200.3831743202
 30
0.0
 11
115.9323425481
 21
183.5831743202
 31
0.0
  0
LINE
  5
AA
330
1F
100
AcDbEntity
  8
0
  6
Continuous
 62
     7
370
    25
100
AcDbLine
 10
139.8323425481
 20
216.3831743202
 30
0.0
 11
139.8323425481
 21
200.3831743202
 31
0.0
  0
LINE
  5
AB
330
1F
100
AcDbEntity
  8
0
  6
Continuous
 62
     7
370
    25
100
AcDbLine
 10
172.3323425481
 20
216.3831743202
 30
0.0
 11
139.8323425481
 21
216.3831743202
 31
0.0
  0
LINE
  5
AC
330
1F
100
AcDbEntity
  8
0
  6
Continuous
 62
     7
370
    25
100
AcDbLine
 10
172.3323425481
 20
216.3831743202
 30
0.0
 11
172.3323425481
 21
200.3831743202
 31
0.0
  0
LINE
  5
AD
330
1F
100
AcDbEntity
  8
0
  6
Continuous
 62
     7
370
    25
100
AcDbLine
 10
139.8323425481
 20
200.3831743202
 30
0.0
 11
172.3323425481
 21
200.3831743202
 31
0.0
  0
LINE
  5
AE
330
1F
100
AcDbEntity
  8
0
  6
Continuous
 62
     7
370
    25
100
AcDbLine
 10
107.3323425481
 20
216.3831743202
 30
0.0
 11
107.3323425481
 21
200.3831743202
 31
0.0
  0
LINE
  5
AF
330
1F
100
AcDbEntity
  8
0
  6
Continuous
 62
     7
370
    25
100
AcDbLine
 10
139.8323425481
 20
216.3831743202
 30
0.0
 11
107.3323425481
 21
216.3831743202
 31
0.0
  0
LINE
  5
B0
330
1F
100
AcDbEntity
  8
0
  6
Continuous
 62
     7
370
    25
100
AcDbLine
 10
107.3323425481
 20
200.3831743202
 30
0.0
 11
139.8323425481
 21
200.3831743202
 31
0.0
  0
LINE
  5
B1
330
1F
100
AcDbEntity
  8
0
  6
Continuous
 62
     7
370
    25
100
AcDbLine
 10
164.8323425481
 20
265.3831743202
 30
0.0
 11
114.8323425481
 21
265.3831743202
 31
0.0
  0
LINE
  5
B2
330
1F
100
AcDbEntity
  8
0
  6
Continuous
 62
     7
370
    25
100
AcDbLine
 10
163.7323425481
 20
177.5831743202
 30
0.0
 11
115.9323425481
 21
177.5831743202
 31
0.0
  0
LINE
  5
B3
330
1F
100
AcDbEntity
  8
0
  6
Continuous
 62
     7
370
    25
100
AcDbLine
 10
163.7323425481
 20
177.3831743202
 30
0.0
 11
115.9323425481
 21
177.3831743202
 31
0.0
  0
LINE
  5
B4
330
1F
100
AcDbEntity
  8
0
  6
Continuous
 62
     7
370
    25
100
AcDbLine
 10
162.0002917405
 20
178.5831743202
 30
0.0
 11
117.6643933556
 21
178.5831743202
 31
0.0
  0
LINE
  5
B5
330
1F
100
AcDbEntity
  8
0
  6
Continuous
 62
     7
370
    25
100
AcDbLine
 10
163.7323425481
 20
179.5831743202
 30
0.0
 11
115.9323425481
 21
179.5831743202
 31
0.0
  0
LINE
  5
B6
330
1F
100
AcDbEntity
  8
0
  6
Continuous
 62
     7
370
    25
100
AcDbLine
 10
162.0002917405
 20
180.5831743202
 30
0.0
 11
117.6643933556
 21
180.5831743202
 31
0.0
  0
LINE
  5
B7
330
1F
100
AcDbEntity
  8
0
  6
Continuous
 62
     7
370
    25
100
AcDbLine
 10
163.7323425481
 20
181.5831743202
 30
0.0
 11
115.9323425481
 21
181.5831743202
 31
0.0
  0
LINE
  5
B8
330
1F
100
AcDbEntity
  8
0
  6
Continuous
 62
     7
370
    25
100
AcDbLine
 10
162.0002917405
 20
182.5831743202
 30
0.0
 11
117.6643933556
 21
182.5831743202
 31
0.0
  0
LINE
  5
B9
330
1F
100
AcDbEntity
  8
0
  6
Continuous
 62
     7
370
    25
100
AcDbLine
 10
163.7323425481
 20
183.5831743202
 30
0.0
 11
115.9323425481
 21
183.5831743202
 31
0.0
  0
LINE
  5
BA
330
1F
100
AcDbEntity
  8
0
  6
Continuous
 62
     7
370
    25
100
AcDbLine
 10
249.9021944894
 20
83.7440552885
 30
0.0
 11
298.9021944894
 21
83.7440552885
 31
0.0
  0
LINE
  5
BB
330
1F
100
AcDbEntity
  8
0
  6
Continuous
 62
     7
370
    25
100
AcDbLine
 10
298.9021944894
 20
133.7440552885
 30
0.0
 11
249.9021944894
 21
133.7440552885
 31
0.0
  0
LINE
  5
BC
330
1F
100
AcDbEntity
  8
0
  6
Continuous
 62
     7
370
    25
100
AcDbLine
 10
211.1021944894
 20
84.8440552885
 30
0.0
 11
212.1021944894
 21
86.576106096
 31
0.0
  0
LINE
  5
BD
330
1F
100
AcDbEntity
  8
0
  6
Continuous
 62
     7
370
    25
100
AcDbLine
 10
212.1021944894
 20
130.9120044809
 30
0.0
 11
211.1021944894
 21
132.6440552885
 31
0.0
  0
LINE
  5
BE
330
1F
100
AcDbEntity
  8
0
  6
Continuous
 62
     7
370
    25
100
AcDbLine
 10
210.9021944894
 20
84.8440552885
 30
0.0
 11
211.1021944894
 21
84.8440552885
 31
0.0
  0
LINE
  5
BF
330
1F
100
AcDbEntity
  8
0
  6
Continuous
 62
     7
370
    25
100
AcDbLine
 10
211.1021944894
 20
132.6440552885
 30
0.0
 11
210.9021944894
 21
132.6440552885
 31
0.0
  0
LINE
  5
C0
330
1F
100
AcDbEntity
  8
0
  6
Continuous
 62
     7
370
    25
100
AcDbLine
 10
213.1021944894
 20
132.6440552885
 30
0.0
 11
212.1021944894
 21
130.9120044809
 31
0.0
  0
LINE
  5
C1
330
1F
100
AcDbEntity
  8
0
  6
Continuous
 62
     7
370
    25
100
AcDbLine
 10
212.1021944894
 20
86.576106096
 30
0.0
 11
213.1021944894
 21
84.8440552885
 31
0.0
  0
LINE
  5
C2
330
1F
100
AcDbEntity
  8
0
  6
Continuous
 62
     7
370
    25
100
AcDbLine
 10
213.1021944894
 20
84.8440552885
 30
0.0
 11
214.1021944894
 21
86.576106096
 31
0.0
  0
LINE
  5
C3
330
1F
100
AcDbEntity
  8
0
  6
Continuous
 62
     7
370
    25
100
AcDbLine
 10
214.1021944894
 20
130.9120044809
 30
0.0
 11
213.1021944894
 21
132.6440552885
 31
0.0
  0
LINE
  5
C4
330
1F
100
AcDbEntity
  8
0
  6
Continuous
 62
     7
370
    25
100
AcDbLine
 10
215.1021944894
 20
132.6440552885
 30
0.0
 11
214.1021944894
 21
130.9120044809
 31
0.0
  0
LINE
  5
C5
330
1F
100
AcDbEntity
  8
0
  6
Continuous
 62
     7
370
    25
100
AcDbLine
 10
214.1021944894
 20
86.576106096
 30
0.0
 11
215.1021944894
 21
84.8440552885
 31
0.0
  0
LINE
  5
C6
330
1F
100
AcDbEntity
  8
0
  6
Continuous
 62
     7
370
    25
100
AcDbLine
 10
215.1021944894
 20
84.8440552885
 30
0.0
 11
216.1021944894
 21
86.576106096
 31
0.0
  0
LINE
  5
C7
330
1F
100
AcDbEntity
  8
0
  6
Continuous
 62
     7
370
    25
100
AcDbLine
 10
216.1021944894
 20
130.9120044809
 30
0.0
 11
215.1021944894
 21
132.6440552885
 31
0.0
  0
LINE
  5
C8
330
1F
100
AcDbEntity
  8
0
  6
Continuous
 62
     7
370
    25
100
AcDbLine
 10
217.1021944894
 20
132.6440552885
 30
0.0
 11
216.1021944894
 21
130.9120044809
 31
0.0
  0
LINE
  5
C9
330
1F
100
AcDbEntity
  8
0
  6
Continuous
 62
     7
370
    25
100
AcDbLine
 10
216.1021944894
 20
86.576106096
 30
0.0
 11
217.1021944894
 21
84.8440552885
 31
0.0
  0
LINE
  5
CA
330
1F
100
AcDbEntity
  8
0
  6
Continuous
 62
     7
370
    25
100
AcDbLine
 10
217.1021944894
 20
84.8440552885
 30
0.0
 11
233.9021944894
 21
84.8440552885
 31
0.0
  0
LINE
  5
CB
330
1F
100
AcDbEntity
  8
0
  6
Continuous
 62
     7
370
    25
100
AcDbLine
 10
233.9021944894
 20
132.6440552885
 30
0.0
 11
217.1021944894
 21
132.6440552885
 31
0.0
  0
LINE
  5
CC
330
1F
100
AcDbEntity
  8
0
  6
Continuous
 62
     7
370
    25
100
AcDbLine
 10
249.9021944894
 20
146.2718227858
 30
0.0
 11
233.9021944894
 21
146.2718227858
 31
0.0
  0
LINE
  5
CD
330
1F
100
AcDbEntity
  8
0
  6
Continuous
 62
     7
370
    25
100
AcDbLine
 10
249.9021944894
 20
127.5079390371
 30
0.0
 11
249.9021944894
 21
146.2718227858
 31
0.0
  0
LINE
  5
CE
330
1F
100
AcDbEntity
  8
0
  6
Continuous
 62
     7
370
    25
100
AcDbLine
 10
249.9021944894
 20
127.5079390371
 30
0.0
 11
233.9021944894
 21
127.5079390371
 31
0.0
  0
LINE
  5
CF
330
1F
100
AcDbEntity
  8
0
  6
Continuous
 62
     7
370
    25
100
AcDbLine
 10
233.9021944894
 20
146.2718227858
 30
0.0
 11
233.9021944894
 21
127.5079390371
 31
0.0
  0
LINE
  5
D0
330
1F
100
AcDbEntity
  8
0
  6
Continuous
 62
     7
370
    25
100
AcDbLine
 10
249.9021944894
 20
89.9801715398
 30
0.0
 11
249.9021944894
 21
127.5079390371
 31
0.0
  0
LINE
  5
D1
330
1F
100
AcDbEntity
  8
0
  6
Continuous
 62
     7
370
    25
100
AcDbLine
 10
249.9021944894
 20
89.9801715398
 30
0.0
 11
233.9021944894
 21
89.9801715398
 31
0.0
  0
LINE
  5
D2
330
1F
100
AcDbEntity
  8
0
  6
Continuous
 62
     7
370
    25
100
AcDbLine
 10
233.9021944894
 20
127.5079390371
 30
0.0
 11
233.9021944894
 21
89.9801715398
 31
0.0
  0
LINE
  5
D3
330
1F
100
AcDbEntity
  8
0
  6
Continuous
 62
     7
370
    25
100
AcDbLine
 10
249.9021944894
 20
71.2162877911
 30
0.0
 11
249.9021944894
 21
89.9801715398
 31
0.0
  0
LINE
  5
D4
330
1F
100
AcDbEntity
  8
0
  6
Continuous
 62
     7
370
    25
100
AcDbLine
 10
249.9021944894
 20
71.2162877911
 30
0.0
 11
233.9021944894
 21
71.2162877911
 31
0.0
  0
LINE
  5
D5
330
1F
100
AcDbEntity
  8
0
  6
Continuous
 62
     7
370
    25
100
AcDbLine
 10
233.9021944894
 20
89.9801715398
 30
0.0
 11
233.9021944894
 21
71.2162877911
 31
0.0
  0
LINE
  5
D6
330
1F
100
AcDbEntity
  8
0
  6
Continuous
 62
     7
370
    25
100
AcDbLine
 10
298.9021944894
 20
108.7440552885
 30
0.0
 11
298.9021944894
 21
133.7440552885
 31
0.0
  0
LINE
  5
D7
330
1F
100
AcDbEntity
  8
0
  6
Continuous
 62
     7
370
    25
100
AcDbLine
 10
298.9021944894
 20
83.7440552885
 30
0.0
 11
298.9021944894
 21
108.7440552885
 31
0.0
  0
LINE
  5
D8
330
1F
100
AcDbEntity
  8
0
  6
Continuous
 62
     7
370
    25
100
AcDbLine
 10
212.1021944894
 20
108.7440552885
 30
0.0
 11
212.1021944894
 21
130.9120044809
 31
0.0
  0
LINE
  5
D9
330
1F
100
AcDbEntity
  8
0
  6
Continuous
 62
     7
370
    25
100
AcDbLine
 10
212.1021944894
 20
86.576106096
 30
0.0
 11
212.1021944894
 21
108.7440552885
 31
0.0
  0
LINE
  5
DA
330
1F
100
AcDbEntity
  8
0
  6
Continuous
 62
     7
370
    25
100
AcDbLine
 10
211.1021944894
 20
108.7440552885
 30
0.0
 11
211.1021944894
 21
132.6440552885
 31
0.0
  0
LINE
  5
DB
330
1F
100
AcDbEntity
  8
0
  6
Continuous
 62
     7
370
    25
100
AcDbLine
 10
211.1021944894
 20
84.8440552885
 30
0.0
 11
211.1021944894
 21
108.7440552885
 31
0.0
  0
LINE
  5
DC
330
1F
100
AcDbEntity
  8
0
  6
Continuous
 62
     7
370
    25
100
AcDbLine
 10
210.9021944894
 20
108.7440552885
 30
0.0
 11
210.9021944894
 21
132.6440552885
 31
0.0
  0
LINE
  5
DD
330
1F
100
AcDbEntity
  8
0
  6
Continuous
 62
     7
370
    25
100
AcDbLine
 10
210.9021944894
 20
84.8440552885
 30
0.0
 11
210.9021944894
 21
108.7440552885
 31
0.0
  0
LINE
  5
DE
330
1F
100
AcDbEntity
  8
0
  6
Continuous
 62
     7
370
    25
100
AcDbLine
 10
213.1021944894
 20
108.7440552885
 30
0.0
 11
213.1021944894
 21
132.6440552885
 31
0.0
  0
LINE
  5
DF
330
1F
100
AcDbEntity
  8
0
  6
Continuous
 62
     7
370
    25
100
AcDbLine
 10
213.1021944894
 20
84.8440552885
 30
0.0
 11
213.1021944894
 21
108.7440552885
 31
0.0
  0
LINE
  5
E0
330
1F
100
AcDbEntity
  8
0
  6
Continuous
 62
     7
370
    25
100
AcDbLine
 10
214.1021944894
 20
108.7440552885
 30
0.0
 11
214.1021944894
 21
130.9120044809
 31
0.0
  0
LINE
  5
E1
330
1F
100
AcDbEntity
  8
0
  6
Continuous
 62
     7
370
    25
100
AcDbLine
 10
214.1021944894
 20
86.576106096
 30
0.0
 11
214.1021944894
 21
108.7440552885
 31
0.0
  0
LINE
  5
E2
330
1F
100
AcDbEntity
  8
0
  6
Continuous
 62
     7
370
    25
100
AcDbLine
 10
215.1021944894
 20
108.7440552885
 30
0.0
 11
215.1021944894
 21
132.6440552885
 31
0.0
  0
LINE
  5
E3
330
1F
100
AcDbEntity
  8
0
  6
Continuous
 62
     7
370
    25
100
AcDbLine
 10
215.1021944894
 20
84.8440552885
 30
0.0
 11
215.1021944894
 21
108.7440552885
 31
0.0
  0
LINE
  5
E4
330
1F
100
AcDbEntity
  8
0
  6
Continuous
 62
     7
370
    25
100
AcDbLine
 10
216.1021944894
 20
108.7440552885
 30
0.0
 11
216.1021944894
 21
130.9120044809
 31
0.0
  0
LINE
  5
E5
330
1F
100
AcDbEntity
  8
0
  6
Continuous
 62
     7
370
    25
100
AcDbLine
 10
216.1021944894
 20
86.576106096
 30
0.0
 11
216.1021944894
 21
108.7440552885
 31
0.0
  0
LINE
  5
E6
330
1F
100
AcDbEntity
  8
0
  6
Continuous
 62
     7
370
    25
100
AcDbLine
 10
217.1021944894
 20
108.7440552885
 30
0.0
 11
217.1021944894
 21
132.6440552885
 31
0.0
  0
LINE
  5
E7
330
1F
100
AcDbEntity
  8
0
  6
Continuous
 62
     7
370
    25
100
AcDbLine
 10
217.1021944894
 20
84.8440552885
 30
0.0
 11
217.1021944894
 21
108.7440552885
 31
0.0
  0
LINE
  5
E8
330
1F
100
AcDbEntity
  8
0
  6
Continuous
 62
     7
370
    25
100
AcDbLine
 10
13.6712125299
 20
133.7440552885
 30
0.0
 11
-35.3287874701
 21
133.7440552885
 31
0.0
  0
LINE
  5
E9
330
1F
100
AcDbEntity
  8
0
  6
Continuous
 62
     7
370
    25
100
AcDbLine
 10
-35.3287874701
 20
83.7440552885
 30
0.0
 11
13.6712125299
 21
83.7440552885
 31
0.0
  0
LINE
  5
EA
330
1F
100
AcDbEntity
  8
0
  6
Continuous
 62
     7
370
    25
100
AcDbLine
 10
52.6712125299
 20
132.6440552885
 30
0.0
 11
52.4712125299
 21
132.6440552885
 31
0.0
  0
LINE
  5
EB
330
1F
100
AcDbEntity
  8
0
  6
Continuous
 62
     7
370
    25
100
AcDbLine
 10
52.4712125299
 20
84.8440552885
 30
0.0
 11
52.6712125299
 21
84.8440552885
 31
0.0
  0
LINE
  5
EC
330
1F
100
AcDbEntity
  8
0
  6
Continuous
 62
     7
370
    25
100
AcDbLine
 10
52.4712125299
 20
132.6440552885
 30
0.0
 11
51.4712125299
 21
130.9120044809
 31
0.0
  0
LINE
  5
ED
330
1F
100
AcDbEntity
  8
0
  6
Continuous
 62
     7
370
    25
100
AcDbLine
 10
51.4712125299
 20
86.576106096
 30
0.0
 11
52.4712125299
 21
84.8440552885
 31
0.0
  0
LINE
  5
EE
330
1F
100
AcDbEntity
  8
0
  6
Continuous
 62
     7
370
    25
100
AcDbLine
 10
50.4712125299
 20
84.8440552885
 30
0.0
 11
51.4712125299
 21
86.576106096
 31
0.0
  0
LINE
  5
EF
330
1F
100
AcDbEntity
  8
0
  6
Continuous
 62
     7
370
    25
100
AcDbLine
 10
51.4712125299
 20
130.9120044809
 30
0.0
 11
50.4712125299
 21
132.6440552885
 31
0.0
  0
LINE
  5
F0
330
1F
100
AcDbEntity
  8
0
  6
Continuous
 62
     7
370
    25
100
AcDbLine
 10
50.4712125299
 20
132.6440552885
 30
0.0
 11
49.4712125299
 21
130.9120044809
 31
0.0
  0
LINE
  5
F1
330
1F
100
AcDbEntity
  8
0
  6
Continuous
 62
     7
370
    25
100
AcDbLine
 10
49.4712125299
 20
86.576106096
 30
0.0
 11
50.4712125299
 21
84.8440552885
 31
0.0
  0
LINE
  5
F2
330
1F
100
AcDbEntity
  8
0
  6
Continuous
 62
     7
370
    25
100
AcDbLine
 10
48.4712125299
 20
84.8440552885
 30
0.0
 11
49.4712125299
 21
86.576106096
 31
0.0
  0
LINE
  5
F3
330
1F
100
AcDbEntity
  8
0
  6
Continuous
 62
     7
370
    25
100
AcDbLine
 10
49.4712125299
 20
130.9120044809
 30
0.0
 11
48.4712125299
 21
132.6440552885
 31
0.0
  0
LINE
  5
F4
330
1F
100
AcDbEntity
  8
0
  6
Continuous
 62
     7
370
    25
100
AcDbLine
 10
48.4712125299
 20
132.6440552885
 30
0.0
 11
47.4712125299
 21
130.9120044809
 31
0.0
  0
LINE
  5
F5
330
1F
100
AcDbEntity
  8
0
  6
Continuous
 62
     7
370
    25
100
AcDbLine
 10
47.4712125299
 20
86.576106096
 30
0.0
 11
48.4712125299
 21
84.8440552885
 31
0.0
  0
LINE
  5
F6
330
1F
100
AcDbEntity
  8
0
  6
Continuous
 62
     7
370
    25
100
AcDbLine
 10
46.4712125299
 20
84.8440552885
 30
0.0
 11
47.4712125299
 21
86.576106096
 31
0.0
  0
LINE
  5
F7
330
1F
100
AcDbEntity
  8
0
  6
Continuous
 62
     7
370
    25
100
AcDbLine
 10
47.4712125299
 20
130.9120044809
 30
0.0
 11
46.4712125299
 21
132.6440552885
 31
0.0
  0
LINE
  5
F8
330
1F
100
AcDbEntity
  8
0
  6
Continuous
 62
     7
370
    25
100
AcDbLine
 10
46.4712125299
 20
132.6440552885
 30
0.0
 11
29.6712125299
 21
132.6440552885
 31
0.0
  0
LINE
  5
F9
330
1F
100
AcDbEntity
  8
0
  6
Continuous
 62
     7
370
    25
100
AcDbLine
 10
29.6712125299
 20
84.8440552885
 30
0.0
 11
46.4712125299
 21
84.8440552885
 31
0.0
  0
LINE
  5
FA
330
1F
100
AcDbEntity
  8
0
  6
Continuous
 62
     7
370
    25
100
AcDbLine
 10
13.6712125299
 20
89.9801715398
 30
0.0
 11
29.6712125299
 21
89.9801715398
 31
0.0
  0
LINE
  5
FB
330
1F
100
AcDbEntity
  8
0
  6
Continuous
 62
     7
370
    25
100
AcDbLine
 10
13.6712125299
 20
127.5079390371
 30
0.0
 11
13.6712125299
 21
89.9801715398
 31
0.0
  0
LINE
  5
FC
330
1F
100
AcDbEntity
  8
0
  6
Continuous
 62
     7
370
    25
100
AcDbLine
 10
13.6712125299
 20
127.5079390371
 30
0.0
 11
29.6712125299
 21
127.5079390371
 31
0.0
  0
LINE
  5
FD
330
1F
100
AcDbEntity
  8
0
  6
Continuous
 62
     7
370
    25
100
AcDbLine
 10
29.6712125299
 20
89.9801715398
 30
0.0
 11
29.6712125299
 21
127.5079390371
 31
0.0
  0
LINE
  5
FE
330
1F
100
AcDbEntity
  8
0
  6
Continuous
 62
     7
370
    25
100
AcDbLine
 10
13.6712125299
 20
146.2718227858
 30
0.0
 11
13.6712125299
 21
127.5079390371
 31
0.0
  0
LINE
  5
FF
330
1F
100
AcDbEntity
  8
0
  6
Continuous
 62
     7
370
    25
100
AcDbLine
 10
13.6712125299
 20
146.2718227858
 30
0.0
 11
29.6712125299
 21
146.2718227858
 31
0.0
  0
LINE
  5
100
330
1F
100
AcDbEntity
  8
0
  6
Continuous
 62
     7
370
    25
100
AcDbLine
 10
29.6712125299
 20
127.5079390371
 30
0.0
 11
29.6712125299
 21
146.2718227858
 31
0.0
  0
LINE
  5
101
330
1F
100
AcDbEntity
  8
0
  6
Continuous
 62
     7
370
    25
100
AcDbLine
 10
13.6712125299
 20
71.2162877911
 30
0.0
 11
29.6712125299
 21
71.2162877911
 31
0.0
  0
LINE
  5
102
330
1F
100
AcDbEntity
  8
0
  6
Continuous
 62
     7
370
    25
100
AcDbLine
 10
13.6712125299
 20
89.9801715398
 30
0.0
 11
13.6712125299
 21
71.2162877911
 31
0.0
  0
LINE
  5
103
330
1F
100
AcDbEntity
  8
0
  6
Continuous
 62
     7
370
    25
100
AcDbLine
 10
29.6712125299
 20
71.2162877911
 30
0.0
 11
29.6712125299
 21
89.9801715398
 31
0.0
  0
LINE
  5
104
330
1F
100
AcDbEntity
  8
0
  6
Continuous
 62
     7
370
    25
100
AcDbLine
 10
-35.3287874701
 20
133.7440552885
 30
0.0
 11
-35.3287874701
 21
83.7440552885
 31
0.0
  0
LINE
  5
105
330
1F
100
AcDbEntity
  8
0
  6
Continuous
 62
     7
370
    25
100
AcDbLine
 10
52.4712125299
 20
132.6440552885
 30
0.0
 11
52.4712125299
 21
84.8440552885
 31
0.0
  0
LINE
  5
106
330
1F
100
AcDbEntity
  8
0
  6
Continuous
 62
     7
370
    25
100
AcDbLine
 10
52.6712125299
 20
132.6440552885
 30
0.0
 11
52.6712125299
 21
84.8440552885
 31
0.0
  0
LINE
  5
107
330
1F
100
AcDbEntity
  8
0
  6
Continuous
 62
     7
370
    25
100
AcDbLine
 10
51.4712125299
 20
130.9120044809
 30
0.0
 11
51.4712125299
 21
86.576106096
 31
0.0
  0
LINE
  5
108
330
1F
100
AcDbEntity
  8
0
  6
Continuous
 62
     7
370
    25
100
AcDbLine
 10
50.4712125299
 20
132.6440552885
 30
0.0
 11
50.4712125299
 21
84.8440552885
 31
0.0
  0
LINE
  5
109
330
1F
100
AcDbEntity
  8
0
  6
Continuous
 62
     7
370
    25
100
AcDbLine
 10
49.4712125299
 20
130.9120044809
 30
0.0
 11
49.4712125299
 21
86.576106096
 31
0.0
  0
LINE
  5
10A
330
1F
100
AcDbEntity
  8
0
  6
Continuous
 62
     7
370
    25
100
AcDbLine
 10
48.4712125299
 20
132.6440552885
 30
0.0
 11
48.4712125299
 21
84.8440552885
 31
0.0
  0
LINE
  5
10B
330
1F
100
AcDbEntity
  8
0
  6
Continuous
 62
     7
370
    25
100
AcDbLine
 10
47.4712125299
 20
130.9120044809
 30
0.0
 11
47.4712125299
 21
86.576106096
 31
0.0
  0
LINE
  5
10C
330
1F
100
AcDbEntity
  8
0
  6
Continuous
 62
     7
370
    25
100
AcDbLine
 10
46.4712125299
 20
132.6440552885
 30
0.0
 11
46.4712125299
 21
84.8440552885
 31
0.0
  0
LINE
  5
10D
330
1F
100
AcDbEntity
  8
0
  6
Continuous
 62
     7
370
    25
100
AcDbLine
 10
268.1322669934
 20
22.5885057872
 30
0.0
 11
233.4840347152
 21
42.5905045269
 31
0.0
  0
LINE
  5
10E
330
1F
100
AcDbEntity
  8
0
  6
Continuous
 62
     7
370
    25
100
AcDbLine
 10
208.4860663993
 20
-0.7119385921
 30
0.0
 11
243.1342986775
 21
-20.7139373318
 31
0.0
  0
LINE
  5
10F
330
1F
100
AcDbEntity
  8
0
  6
Continuous
 62
     7
370
    25
100
AcDbLine
 10
290.7754141134
 20
8.2467590047
 30
0.0
 11
289.927961723
 21
8.7359828563
 31
0.0
  0
LINE
  5
110
330
1F
100
AcDbEntity
  8
0
  6
Continuous
 62
     7
370
    25
100
AcDbLine
 10
295.1594761567
 20
5.7158938581
 30
0.0
 11
295.0180548005
 21
5.7975346692
 31
0.0
  0
LINE
  5
111
330
1F
100
AcDbEntity
  8
0
  6
Continuous
 62
     7
370
    25
100
AcDbLine
 10
271.1199970905
 20
-35.5996009525
 30
0.0
 11
271.2614184467
 21
-35.6812417637
 31
0.0
  0
LWPOLYLINE
  5
112
330
1F
100
AcDbEntity
  8
0
  6
Continuous
 62
     7
370
    25
100
AcDbPolyline
 90
       95
 70
   128
 43
0.0
 10
206.5600722211
 20
12.6119202268
 10
206.5922849486
 20
13.7431100308
 10
206.6887792612
 20
14.9064396901
 10
206.8491241918
 20
16.0967134919
 10
207.0726036012
 20
17.3086153846
 10
207.358219376
 20
18.53673272
 10
207.7046958868
 20
19.7755804281
 10
208.1104856854
 20
21.0196255142
 10
208.573776416
 20
22.263311771
 10
209.0924989099
 20
23.5010845937
 10
209.6643364264
 20
24.7274157885
 10
210.2867350003
 20
25.9368282625
 10
210.9569148486
 20
27.1239204861
 10
211.6718827853
 20
28.2833906172
 10
212.4284455901
 20
29.4100601807
 10
213.2232242698
 20
30.4988971968
 10
214.0526691499
 20
31.5450386552
 10
214.9130757283
 20
32.5438122341
 10
215.8006012202
 20
33.4907571682
 10
216.7112817215
 20
34.3816441716
 10
217.6410499118
 20
35.2124943267
 10
218.5857532208
 20
35.979596855
 10
219.5411723741
 20
36.6795256904
 10
220.5030402379
 20
37.3091547808
 10
221.4670608767
 20
37.8656720498
 10
222.4289287405
 20
38.3465919563
 10
223.3843478938
 20
38.7497665951
 10
224.3290512028
 20
39.0733952904
 10
225.2588193931
 20
39.3160326381
 10
226.1694998943
 20
39.4765949606
 10
227.0570253863
 20
39.5543651478
 10
227.9174319646
 20
39.5489958591
 10
228.7468768448
 20
39.460511075
 10
229.5416555245
 20
39.2893059901
 10
230.2982183293
 20
39.0361452479
 10
231.013186266
 20
38.7021595256
 10
231.6833661143
 20
38.2888404847
 10
232.3057646882
 20
37.7980341081
 10
232.8776022047
 20
37.2319324565
 10
233.3963246986
 20
36.5930638771
 10
233.8596154292
 20
35.8842817122
 10
234.2654052278
 20
35.108751555
 10
234.6118817386
 20
34.2699371113
 10
234.8974975134
 20
33.3715847302
 10
235.1209769228
 20
32.4177066714
 10
235.2813218534
 20
31.4125631859
 10
235.377816166
 20
30.3606434885
 10
235.4100288935
 20
29.266645708
 10
235.377816166
 20
28.1354559039
 10
235.2813218534
 20
26.9721262447
 10
235.1209769228
 20
25.7818524428
 10
234.8974975134
 20
24.5699505502
 10
234.6118817386
 20
23.3418332147
 10
234.2654052278
 20
22.1029855067
 10
233.8596154292
 20
20.8589404205
 10
233.3963246986
 20
19.6152541638
 10
232.8776022047
 20
18.377481341
 10
232.3057646882
 20
17.1511501462
 10
231.6833661143
 20
15.9417376722
 10
231.013186266
 20
14.7546454486
 10
230.2982183293
 20
13.5951753176
 10
229.5416555245
 20
12.4685057541
 10
228.7468768448
 20
11.3796687379
 10
227.9174319646
 20
10.3335272796
 10
227.0570253863
 20
9.3347537007
 10
226.1694998943
 20
8.3878087665
 10
225.2588193931
 20
7.4969217631
 10
224.3290512028
 20
6.666071608
 10
223.3843478938
 20
5.8989690797
 10
222.4289287405
 20
5.1990402443
 10
221.4670608767
 20
4.5694111539
 10
220.5030402379
 20
4.0128938849
 10
219.5411723741
 20
3.5319739785
 10
218.5857532208
 20
3.1287993396
 10
217.6410499118
 20
2.8051706443
 10
216.7112817215
 20
2.5625332967
 10
215.8006012202
 20
2.4019709741
 10
214.9130757283
 20
2.3242007869
 10
214.0526691499
 20
2.3295700757
 10
213.2232242698
 20
2.4180548597
 10
212.4284455901
 20
2.5892599446
 10
211.6718827853
 20
2.8424206868
 10
210.9569148486
 20
3.1764064091
 10
210.2867350003
 20
3.5897254501
 10
209.6643364264
 20
4.0805318266
 10
209.0924989099
 20
4.6466334782
 10
208.573776416
 20
5.2855020576
 10
208.1104856854
 20
5.9942842225
 10
207.7046958868
 20
6.7698143798
 10
207.358219376
 20
7.6086288234
 10
207.0726036012
 20
8.5069812046
 10
206.8491241918
 20
9.4608592634
 10
206.6887792612
 20
10.4660027489
 10
206.5922849486
 20
11.5179224462
 10
206.5600722211
 20
12.6119202268
  0
LWPOLYLINE
  5
113
330
1F
100
AcDbEntity
  8
0
  6
Continuous
 62
     7
370
    25
100
AcDbPolyline
 90
      105
 70
   128
 43
0.0
 10
203.3073810276
 20
10.7341815696
 10
203.3396329771
 20
11.9853379064
 10
203.4362711418
 20
13.2691662177
 10
203.5969428995
 20
14.5809819532
 10
203.8210619763
 20
15.9159984395
 10
204.1078105861
 20
17.2693443464
 10
204.4561424142
 20
18.6360814613
 10
204.8647864357
 20
20.0112227087
 10
205.3322515527
 20
21.3897503474
 10
205.8568320359
 20
22.7666342794
 10
206.4366137478
 20
24.1368504047
 10
207.0694811279
 20
25.4953989531
 10
207.7531249117
 20
26.8373227284
 10
208.4850505573
 20
28.1577251963
 10
209.2625873473
 20
29.4517883513
 10
210.0828981343
 20
30.7147902973
 10
210.9429896931
 20
31.9421224771
 10
211.8397236431
 20
33.1293064888
 10
212.7698278991
 20
34.2720104267
 10
213.7299086118
 20
35.3660646879
 10
214.7164625506
 20
36.4074771872
 10
215.7258898872
 20
37.3924479232
 10
216.7545073307
 20
38.3173828446
 10
217.7985615678
 20
39.1789069642
 10
218.8542429575
 20
39.9738766738
 10
219.9176994332
 20
40.6993912152
 10
220.9850505573
 20
41.3528032645
 10
222.0524016814
 20
41.9317285921
 10
223.115858157
 20
42.4340547621
 10
224.1715395468
 20
42.8579488409
 10
225.2155937838
 20
43.2018640849
 10
226.2442112274
 20
43.4645455847
 10
227.253638564
 20
43.645034844
 10
228.2401925028
 20
43.7426732771
 10
229.2002732155
 20
43.7571046119
 10
230.1303774715
 20
43.68827619
 10
231.0271114215
 20
43.5364391589
 10
231.8872029803
 20
43.3021475555
 10
232.7075137673
 20
42.9862562843
 10
233.4850505573
 20
42.5899179984
 10
234.2169762029
 20
42.1145788933
 10
234.9006199867
 20
41.5619734297
 10
235.5334873668
 20
40.934118005
 10
236.1132690787
 20
40.2333035957
 10
236.6378495618
 20
39.4620873975
 10
237.1053146789
 20
38.6232834947
 10
237.5139587004
 20
37.7199525917
 10
237.8622905285
 20
36.755390845
 10
238.1490391383
 20
35.7331178359
 10
238.3731582151
 20
34.6568637277
 10
238.5338299728
 20
33.530555655
 10
238.6304681374
 20
32.3583033936
 10
238.662720087
 20
31.1443843652
 10
238.6304681374
 20
29.8932280284
 10
238.5338299728
 20
28.6093997171
 10
238.3731582151
 20
27.2975839816
 10
238.1490391383
 20
25.9625674952
 10
237.8622905285
 20
24.6092215883
 10
237.5139587004
 20
23.2424844734
 10
237.1053146789
 20
21.867343226
 10
236.6378495618
 20
20.4888155874
 10
236.1132690787
 20
19.1119316553
 10
235.5334873668
 20
17.7417155301
 10
234.9006199867
 20
16.3831669816
 10
234.2169762029
 20
15.0412432063
 10
233.4850505573
 20
13.7208407384
 10
232.7075137673
 20
12.4267775835
 10
231.8872029803
 20
11.1637756375
 10
231.0271114215
 20
9.9364434576
 10
230.1303774715
 20
8.7492594459
 10
229.2002732155
 20
7.6065555081
 10
228.2401925028
 20
6.5125012468
 10
227.253638564
 20
5.4710887476
 10
226.2442112274
 20
4.4861180115
 10
225.2155937838
 20
3.5611830901
 10
224.1715395468
 20
2.6996589706
 10
223.115858157
 20
1.904689261
 10
222.0524016814
 20
1.1791747196
 10
220.9850505573
 20
0.5257626702
 10
219.9176994332
 20
-0.0531626573
 10
218.8542429575
 20
-0.5554888273
 10
217.7985615678
 20
-0.9793829061
 10
216.7545073307
 20
-1.3232981501
 10
215.7258898872
 20
-1.58597965
 10
214.7164625506
 20
-1.7664689093
 10
213.7299086118
 20
-1.8641073423
 10
212.7698278991
 20
-1.8785386771
 10
211.8397236431
 20
-1.8097102553
 10
210.9429896931
 20
-1.6578732242
 10
210.0828981343
 20
-1.4235816207
 10
209.2625873473
 20
-1.1076903496
 10
208.4850505573
 20
-0.7113520637
 10
207.7531249117
 20
-0.2360129585
 10
207.0694811279
 20
0.3165925051
 10
206.4366137478
 20
0.9444479297
 10
205.8568320359
 20
1.645262339
 10
205.3322515527
 20
2.4164785372
 10
204.8647864357
 20
3.2552824401
 10
204.4561424142
 20
4.1586133431
 10
204.1078105861
 20
5.1231750897
 10
203.8210619763
 20
6.1454480988
 10
203.5969428995
 20
7.221702207
 10
203.4362711418
 20
8.3480102798
 10
203.3396329771
 20
9.5202625411
 10
203.3073810276
 20
10.7341815696
  0
LWPOLYLINE
  5
114
330
1F
100
AcDbEntity
  8
0
  6
Continuous
 62
     7
370
    25
100
AcDbPolyline
 90
       54
 70
   128
 43
0.0
 10
268.1322669934
 20
22.5885057872
 10
268.1332828354
 20
22.5879192588
 10
268.865208481
 20
22.1125801536
 10
269.5488522649
 20
21.55997469
 10
270.1817196449
 20
20.9321192654
 10
270.7615013569
 20
20.2313048561
 10
271.28608184
 20
19.4600886578
 10
271.753546957
 20
18.621284755
 10
272.1621909785
 20
17.717953852
 10
272.5105228066
 20
16.7533921053
 10
272.7972714164
 20
15.7311190963
 10
273.0213904932
 20
14.6548649881
 10
273.1820622509
 20
13.5285569153
 10
273.2787004156
 20
12.356304654
 10
273.3109523651
 20
11.1423856255
 10
273.2787004156
 20
9.8912292887
 10
273.1820622509
 20
8.6074009774
 10
273.0213904932
 20
7.2955852419
 10
272.7972714164
 20
5.9605687555
 10
272.5105228066
 20
4.6072228487
 10
272.1621909785
 20
3.2404857338
 10
271.753546957
 20
1.8653444864
 10
271.28608184
 20
0.4868168477
 10
270.7615013569
 20
-0.8900670843
 10
270.1817196449
 20
-2.2602832096
 10
269.5488522649
 20
-3.618831758
 10
268.865208481
 20
-4.9607555334
 10
268.1332828354
 20
-6.2811580012
 10
267.3557460454
 20
-7.5752211562
 10
266.5354352585
 20
-8.8382231022
 10
265.6753436996
 20
-10.065555282
 10
264.7786097497
 20
-11.2527392937
 10
263.8485054936
 20
-12.3954432316
 10
262.888424781
 20
-13.4894974928
 10
261.9018708422
 20
-14.5309099921
 10
260.8924435056
 20
-15.5158807281
 10
259.863826062
 20
-16.4408156495
 10
258.819771825
 20
-17.3023397691
 10
257.7640904352
 20
-18.0973094787
 10
256.7006339596
 20
-18.8228240201
 10
255.6332828354
 20
-19.4762360694
 10
254.5659317113
 20
-20.055161397
 10
253.5024752357
 20
-20.557487567
 10
252.4467938459
 20
-20.9813816458
 10
251.4027396089
 20
-21.3252968898
 10
250.3741221653
 20
-21.5879783896
 10
249.3646948287
 20
-21.7684676489
 10
248.3781408899
 20
-21.866106082
 10
247.4180601773
 20
-21.8805374168
 10
246.4879559212
 20
-21.8117089949
 10
245.5912219713
 20
-21.6598719638
 10
244.7311304124
 20
-21.4255803604
 10
243.9108196254
 20
-21.1096890892
 10
243.1342986775
 20
-20.7139373318
  0
LWPOLYLINE
  5
115
330
1F
100
AcDbEntity
  8
0
  6
Continuous
 62
     7
370
    25
100
AcDbPolyline
 90
       31
 70
   128
 43
0.0
 10
213.631140033
 20
8.5298796677
 10
213.6633527604
 20
9.6610694717
 10
213.759847073
 20
10.824399131
 10
213.9201920037
 20
12.0146729328
 10
214.1436714131
 20
13.2265748254
 10
214.4292871878
 20
14.4546921609
 10
214.7757636986
 20
15.693539869
 10
215.1815534972
 20
16.9375849551
 10
215.6448442279
 20
18.1812712119
 10
216.1635667218
 20
19.4190440346
 10
216.7354042382
 20
20.6453752294
 10
217.3578028122
 20
21.8547877034
 10
218.0279826605
 20
23.041879927
 10
218.7429505972
 20
24.2013500581
 10
219.499513402
 20
25.3280196216
 10
220.2942920817
 20
26.4168566377
 10
221.1237369618
 20
27.4629980961
 10
221.9841435402
 20
28.4617716749
 10
222.8716690321
 20
29.4087166091
 10
223.7823495333
 20
30.2996036125
 10
224.7121177237
 20
31.1304537676
 10
225.6568210326
 20
31.8975562959
 10
226.6122401859
 20
32.5974851313
 10
227.5741080497
 20
33.2271142217
 10
228.5381286886
 20
33.7836314907
 10
229.4999965524
 20
34.2645513972
 10
230.4554157057
 20
34.667726036
 10
231.4001190147
 20
34.9913547313
 10
232.329887205
 20
35.2339920789
 10
233.2405677062
 20
35.3945544015
 10
234.087566909
 20
35.4705580016
  0
ARC
  5
116
330
1F
100
AcDbEntity
  8
0
  6
Continuous
 62
     7
370
    25
100
AcDbCircle
 10
227.2727862431
 20
8.194904235
 30
0.0
 40
13.64575831033771
100
AcDbArc
 50
178.5933646041
 51
205.4734238463
  0
LWPOLYLINE
  5
117
330
1F
100
AcDbEntity
  8
0
  6
Continuous
 62
     7
370
    25
100
AcDbPolyline
 90
       27
 70
   128
 43
0.0
 10
219.8536797074
 20
8.5298796677
 10
219.8860816563
 20
9.5366482356
 10
219.9831019074
 20
10.5750606183
 10
220.1441847376
 20
11.6391688835
 10
220.3684074791
 20
12.7228779155
 10
220.6544858042
 20
13.8199803272
 10
221.0007810822
 20
14.9241920151
 10
221.4053097652
 20
16.0291881549
 10
221.8657547494
 20
17.1286394286
 10
222.3794786477
 20
18.2162482789
 10
222.9435388961
 20
19.2857849809
 10
223.5547046086
 20
20.3311233252
 10
224.2094750834
 20
21.3462757083
 10
224.9040998545
 20
22.3254274294
 10
225.634600174
 20
23.2629699961
 10
226.3967918023
 20
24.1535332495
 10
227.1863089749
 20
24.9920161239
 10
227.9986294087
 20
25.7736158653
 10
228.8291002059
 20
26.4938555411
 10
229.6729645051
 20
27.1486096839
 10
230.5253887279
 20
27.734127921
 10
231.3814902656
 20
28.2470564571
 10
232.236365446
 20
28.684457284
 10
233.0851176217
 20
29.0438250094
 10
233.9228852169
 20
29.3231012074
 10
234.7448695748
 20
29.5206862093
 10
235.4067244738
 20
29.6212616409
  0
ARC
  5
118
330
1F
100
AcDbEntity
  8
0
  6
Continuous
 62
     7
370
    25
100
AcDbCircle
 10
230.6892819945
 20
8.2642254018
 30
0.0
 40
10.83885829377831
100
AcDbArc
 50
178.5955723256
 51
202.5437496381
  0
LINE
  5
119
330
1F
100
AcDbEntity
  8
0
  6
Continuous
 62
     7
370
    25
100
AcDbLine
 10
255.6332828354
 20
-29.7056695128
 30
0.0
 11
232.6523124469
 21
-27.6508244597
 31
0.0
  0
LINE
  5
11A
330
1F
100
AcDbEntity
  8
0
  6
Continuous
 62
     7
370
    25
100
AcDbLine
 10
232.6523124469
 20
-27.6508244597
 30
0.0
 11
232.6523124469
 21
-14.6628154826
 31
0.0
  0
LINE
  5
11B
330
1F
100
AcDbEntity
  8
0
  6
Continuous
 62
     7
370
    25
100
AcDbLine
 10
254.6580215009
 20
30.3670221397
 30
0.0
 11
255.6332828354
 21
31.5802379682
 31
0.0
  0
LINE
  5
11C
330
1F
100
AcDbEntity
  8
0
  6
Continuous
 62
     7
370
    25
100
AcDbLine
 10
255.6332828354
 20
31.5802379682
 30
0.0
 11
278.614253224
 21
29.5253929151
 31
0.0
  0
LINE
  5
11D
330
1F
100
AcDbEntity
  8
0
  6
Continuous
 62
     7
370
    25
100
AcDbLine
 10
278.614253224
 20
29.5253929151
 30
0.0
 11
278.614253224
 21
-1.1175608254
 31
0.0
  0
LINE
  5
11E
330
1F
100
AcDbEntity
  8
0
  6
Continuous
 62
     7
370
    25
100
AcDbLine
 10
278.614253224
 20
-1.1175608254
 30
0.0
 11
255.6332828354
 21
-29.7056695128
 31
0.0
  0
LINE
  5
11F
330
1F
100
AcDbEntity
  8
0
  6
Continuous
 62
     7
370
    25
100
AcDbLine
 10
255.6332828354
 20
-29.7056695128
 30
0.0
 11
266.9469913344
 21
-36.2369344074
 31
0.0
  0
LINE
  5
120
330
1F
100
AcDbEntity
  8
0
  6
Continuous
 62
     7
370
    25
100
AcDbLine
 10
278.614253224
 20
-1.1175608254
 30
0.0
 11
289.927961723
 21
-7.64882572
 31
0.0
  0
LINE
  5
121
330
1F
100
AcDbEntity
  8
0
  6
Continuous
 62
     7
370
    25
100
AcDbLine
 10
266.9469913344
 20
-36.2369344074
 30
0.0
 11
289.927961723
 21
-7.64882572
 31
0.0
  0
LINE
  5
122
330
1F
100
AcDbEntity
  8
0
  6
Continuous
 62
     7
370
    25
100
AcDbLine
 10
278.614253224
 20
29.5253929151
 30
0.0
 11
289.927961723
 21
22.9941280205
 31
0.0
  0
LINE
  5
123
330
1F
100
AcDbEntity
  8
0
  6
Continuous
 62
     7
370
    25
100
AcDbLine
 10
289.927961723
 20
-7.64882572
 30
0.0
 11
289.927961723
 21
22.9941280205
 31
0.0
  0
LINE
  5
124
330
1F
100
AcDbEntity
  8
0
  6
Continuous
 62
     7
370
    25
100
AcDbLine
 10
232.6523124469
 20
-27.6508244597
 30
0.0
 11
243.9660209459
 21
-34.1820893543
 31
0.0
  0
LINE
  5
125
330
1F
100
AcDbEntity
  8
0
  6
Continuous
 62
     7
370
    25
100
AcDbLine
 10
243.9660209459
 20
-34.1820893543
 30
0.0
 11
266.9469913344
 21
-36.2369344074
 31
0.0
  0
LWPOLYLINE
  5
126
330
1F
100
AcDbEntity
  8
0
  6
Continuous
 62
     7
370
    25
100
AcDbPolyline
 90
       50
 70
   128
 43
0.0
 10
290.7754141134
 20
8.2467590047
 10
291.3155266381
 20
7.9054087559
 10
291.9927317187
 20
7.383583294
 10
292.6199923375
 20
6.7865153958
 10
293.1949290799
 20
6.1164699443
 10
293.715361014
 20
5.3759886513
 10
294.1793139632
 20
4.5678804161
 10
294.585027995
 20
3.69521067
 10
294.9309640972
 20
2.7612897482
 10
295.2158100156
 20
1.7696603328
 10
295.4384852322
 20
0.7240840137
 10
295.5981450634
 20
-0.37147298
 10
295.6941838649
 20
-1.5128548253
 10
295.7262373287
 20
-2.6957318699
 10
295.6941838649
 20
-3.915617056
 10
295.5981450634
 20
-5.1678829413
 10
295.4384852322
 20
-6.4477792524
 10
295.2158100156
 20
-7.7504509041
 10
294.9309640972
 20
-9.0709564166
 10
294.585027995
 20
-10.4042866603
 10
294.1793139632
 20
-11.7453838568
 10
293.715361014
 20
-13.0891607652
 10
293.1949290799
 20
-14.4305199792
 10
292.6199923375
 20
-15.764373264
 10
291.9927317187
 20
-17.0856608571
 10
291.3155266381
 20
-18.3893706622
 10
290.5909459663
 20
-19.6705572615
 10
289.8217382861
 20
-20.9243606752
 10
289.0108214656
 20
-22.1460247976
 10
288.1612715902
 20
-23.3309154383
 10
287.2763112935
 20
-24.4745379011
 10
286.3592975331
 20
-25.5725540343
 10
285.4137088561
 20
-26.6207986868
 10
284.4431322044
 20
-27.6152955073
 10
283.4512493077
 20
-28.5522720289
 10
282.4418227175
 20
-29.4281739787
 10
281.4186815346
 20
-30.2396787605
 10
280.3857068841
 20
-30.9837080588
 10
279.3468171924
 20
-31.6574395156
 10
278.3059533243
 20
-32.2583174367
 10
277.2670636326
 20
-32.7840624862
 10
276.2340889821
 20
-33.2326803333
 10
275.2109477992
 20
-33.6024692167
 10
274.201521209
 20
-33.8920264004
 10
273.2096383123
 20
-34.100253495
 10
272.2390616606
 20
-34.2263606238
 10
271.2934729836
 20
-34.2698694192
 10
270.3764592232
 20
-34.2306148374
 10
269.4914989265
 20
-34.1087457845
 10
268.7882544974
 20
-33.9464205372
  0
LWPOLYLINE
  5
127
330
1F
100
AcDbEntity
  8
0
  6
Continuous
 62
     7
370
    25
100
AcDbPolyline
 90
       53
 70
   128
 43
0.0
 10
291.4615871548
 20
7.8022927189
 10
292.0051595287
 20
7.5336042068
 10
292.7297402004
 20
7.0890006441
 10
293.4069452811
 20
6.5671751822
 10
294.0342058998
 20
5.970107284
 10
294.6091426422
 20
5.3000618324
 10
295.1295745763
 20
4.5595805395
 10
295.5935275255
 20
3.7514723043
 10
295.9992415574
 20
2.8788025582
 10
296.3451776596
 20
1.9448816364
 10
296.630023578
 20
0.953252221
 10
296.8526987945
 20
-0.0923240982
 10
297.0123586258
 20
-1.1878810918
 10
297.1083974273
 20
-2.3292629371
 10
297.1404508911
 20
-3.5121399817
 10
297.1083974273
 20
-4.7320251679
 10
297.0123586258
 20
-5.9842910532
 10
296.8526987945
 20
-7.2641873642
 10
296.630023578
 20
-8.5668590159
 10
296.3451776596
 20
-9.8873645285
 10
295.9992415574
 20
-11.2206947721
 10
295.5935275255
 20
-12.5617919687
 10
295.1295745763
 20
-13.905568877
 10
294.6091426422
 20
-15.246928091
 10
294.0342058998
 20
-16.5807813758
 10
293.4069452811
 20
-17.902068969
 10
292.7297402004
 20
-19.2057787741
 10
292.0051595287
 20
-20.4869653733
 10
291.2359518484
 20
-21.740768787
 10
290.425035028
 20
-22.9624329094
 10
289.5754851526
 20
-24.1473235501
 10
288.6905248559
 20
-25.2909460129
 10
287.7735110954
 20
-26.3889621462
 10
286.8279224185
 20
-27.4372067986
 10
285.8573457668
 20
-28.4317036191
 10
284.8654628701
 20
-29.3686801407
 10
283.8560362799
 20
-30.2445820905
 10
282.832895097
 20
-31.0560868724
 10
281.7999204464
 20
-31.8001161706
 10
280.7610307548
 20
-32.4738476274
 10
279.7201668866
 20
-33.0747255485
 10
278.681277195
 20
-33.6004705981
 10
277.6483025444
 20
-34.0490884451
 10
276.6251613616
 20
-34.4188773285
 10
275.6157347714
 20
-34.7084345123
 10
274.6238518746
 20
-34.9166616069
 10
273.653275223
 20
-35.0427687356
 10
272.707686546
 20
-35.086277531
 10
271.7906727855
 20
-35.0470229492
 10
270.9057124888
 20
-34.9251538963
 10
270.0561626134
 20
-34.7211326634
 10
269.245245793
 20
-34.4357331729
 10
268.6253926172
 20
-34.1490191678
  0
LWPOLYLINE
  5
128
330
1F
100
AcDbEntity
  8
0
  6
Continuous
 62
     7
370
    25
100
AcDbPolyline
 90
       55
 70
   128
 43
0.0
 10
292.8758007172
 20
6.9858846071
 10
293.419373091
 20
6.717196095
 10
294.1439537628
 20
6.2725925322
 10
294.8211588435
 20
5.7507670704
 10
295.4484194622
 20
5.1536991722
 10
296.0233562046
 20
4.4836537206
 10
296.5437881387
 20
3.7431724277
 10
297.0077410879
 20
2.9350641924
 10
297.4134551197
 20
2.0623944463
 10
297.7593912219
 20
1.1284735246
 10
298.0442371404
 20
0.1368441091
 10
298.2669123569
 20
-0.90873221
 10
298.4265721881
 20
-2.0042892037
 10
298.5226109897
 20
-3.1456710489
 10
298.5546644535
 20
-4.3285480935
 10
298.5226109897
 20
-5.5484332797
 10
298.4265721881
 20
-6.800699165
 10
298.2669123569
 20
-8.080595476
 10
298.0442371404
 20
-9.3832671277
 10
297.7593912219
 20
-10.7037726403
 10
297.4134551197
 20
-12.037102884
 10
297.0077410879
 20
-13.3782000805
 10
296.5437881387
 20
-14.7219769888
 10
296.0233562046
 20
-16.0633362028
 10
295.4484194622
 20
-17.3971894876
 10
294.8211588435
 20
-18.7184770808
 10
294.1439537628
 20
-20.0221868859
 10
293.419373091
 20
-21.3033734851
 10
292.6501654108
 20
-22.5571768988
 10
291.8392485904
 20
-23.7788410213
 10
290.989698715
 20
-24.9637316619
 10
290.1047384183
 20
-26.1073541247
 10
289.1877246578
 20
-27.205370258
 10
288.2421359809
 20
-28.2536149104
 10
287.2715593292
 20
-29.248111731
 10
286.2796764324
 20
-30.1850882526
 10
285.2702498422
 20
-31.0609902023
 10
284.2471086594
 20
-31.8724949842
 10
283.2141340088
 20
-32.6165242825
 10
282.1752443172
 20
-33.2902557392
 10
281.134380449
 20
-33.8911336603
 10
280.0954907574
 20
-34.4168787099
 10
279.0625161068
 20
-34.8654965569
 10
278.039374924
 20
-35.2352854403
 10
277.0299483337
 20
-35.5248426241
 10
276.038065437
 20
-35.7330697187
 10
275.0674887853
 20
-35.8591768474
 10
274.1219001084
 20
-35.9026856428
 10
273.2048863479
 20
-35.863431061
 10
272.3199260512
 20
-35.7415620081
 10
271.4703761758
 20
-35.5375407752
 10
270.6594593554
 20
-35.2521412847
 10
269.8902516752
 20
-34.8864461547
 10
269.1656710034
 20
-34.4418425919
 10
269.0196104866
 20
-34.3387265549
  0
LWPOLYLINE
  5
129
330
1F
100
AcDbEntity
  8
0
  6
Continuous
 62
     7
370
    25
100
AcDbPolyline
 90
       55
 70
   128
 43
0.0
 10
294.2900142796
 20
6.1694764953
 10
294.8335866534
 20
5.9007879832
 10
295.5581673252
 20
5.4561844204
 10
296.2353724058
 20
4.9343589586
 10
296.8626330246
 20
4.3372910603
 10
297.437569767
 20
3.6672456088
 10
297.9580017011
 20
2.9267643158
 10
298.4219546503
 20
2.1186560806
 10
298.8276686821
 20
1.2459863345
 10
299.1736047843
 20
0.3120654128
 10
299.4584507028
 20
-0.6795640027
 10
299.6811259193
 20
-1.7251403218
 10
299.8407857505
 20
-2.8206973155
 10
299.9368245521
 20
-3.9620791608
 10
299.9688780158
 20
-5.1449562054
 10
299.9368245521
 20
-6.3648413915
 10
299.8407857505
 20
-7.6171072768
 10
299.6811259193
 20
-8.8970035879
 10
299.4584507028
 20
-10.1996752396
 10
299.1736047843
 20
-11.5201807521
 10
298.8276686821
 20
-12.8535109958
 10
298.4219546503
 20
-14.1946081923
 10
297.9580017011
 20
-15.5383851006
 10
297.437569767
 20
-16.8797443146
 10
296.8626330246
 20
-18.2135975994
 10
296.2353724058
 20
-19.5348851926
 10
295.5581673252
 20
-20.8385949977
 10
294.8335866534
 20
-22.1197815969
 10
294.0643789732
 20
-23.3735850107
 10
293.2534621528
 20
-24.5952491331
 10
292.4039122774
 20
-25.7801397737
 10
291.5189519807
 20
-26.9237622366
 10
290.6019382202
 20
-28.0217783698
 10
289.6563495432
 20
-29.0700230222
 10
288.6857728916
 20
-30.0645198428
 10
287.6938899948
 20
-31.0014963644
 10
286.6844634046
 20
-31.8773983142
 10
285.6613222217
 20
-32.688903096
 10
284.6283475712
 20
-33.4329323943
 10
283.5894578796
 20
-34.1066638511
 10
282.5485940114
 20
-34.7075417721
 10
281.5097043198
 20
-35.2332868217
 10
280.4767296692
 20
-35.6819046688
 10
279.4535884863
 20
-36.0516935521
 10
278.4441618961
 20
-36.3412507359
 10
277.4522789994
 20
-36.5494778305
 10
276.4817023477
 20
-36.6755849593
 10
275.5361136708
 20
-36.7190937546
 10
274.6190999103
 20
-36.6798391728
 10
273.7341396136
 20
-36.55797012
 10
272.8845897382
 20
-36.3539488871
 10
272.0736729178
 20
-36.0685493966
 10
271.3044652375
 20
-35.7028542665
 10
270.5798845658
 20
-35.2582507037
 10
270.433824049
 20
-35.1551346668
  0
LWPOLYLINE
  5
12A
330
1F
100
AcDbEntity
  8
0
  6
Continuous
 62
     7
370
    25
100
AcDbPolyline
 90
       53
 70
   128
 43
0.0
 10
295.1594761567
 20
5.7158938581
 10
295.6995886814
 20
5.3745436092
 10
296.3767937621
 20
4.8527181474
 10
297.0040543808
 20
4.2556502492
 10
297.5789911232
 20
3.5856047976
 10
298.0994230573
 20
2.8451235046
 10
298.5633760065
 20
2.0370152694
 10
298.9690900384
 20
1.1643455233
 10
299.3150261406
 20
0.2304246016
 10
299.599872059
 20
-0.7612048139
 10
299.8225472755
 20
-1.806781133
 10
299.9822071068
 20
-2.9023381267
 10
300.0782459083
 20
-4.0437199719
 10
300.1102993721
 20
-5.2265970166
 10
300.0782459083
 20
-6.4464822027
 10
299.9822071068
 20
-7.698748088
 10
299.8225472755
 20
-8.9786443991
 10
299.599872059
 20
-10.2813160507
 10
299.3150261406
 20
-11.6018215633
 10
298.9690900384
 20
-12.935151807
 10
298.5633760065
 20
-14.2762490035
 10
298.0994230573
 20
-15.6200259118
 10
297.5789911232
 20
-16.9613851258
 10
297.0040543808
 20
-18.2952384106
 10
296.3767937621
 20
-19.6165260038
 10
295.6995886814
 20
-20.9202358089
 10
294.9750080096
 20
-22.2014224081
 10
294.2058003294
 20
-23.4552258219
 10
293.394883509
 20
-24.6768899443
 10
292.5453336336
 20
-25.8617805849
 10
291.6603733369
 20
-27.0054030477
 10
290.7433595764
 20
-28.103419181
 10
289.7977708995
 20
-29.1516638334
 10
288.8271942478
 20
-30.146160654
 10
287.8353113511
 20
-31.0831371756
 10
286.8258847609
 20
-31.9590391253
 10
285.802743578
 20
-32.7705439072
 10
284.7697689274
 20
-33.5145732055
 10
283.7308792358
 20
-34.1883046622
 10
282.6900153676
 20
-34.7891825833
 10
281.651125676
 20
-35.3149276329
 10
280.6181510254
 20
-35.7635454799
 10
279.5950098426
 20
-36.1333343633
 10
278.5855832524
 20
-36.4228915471
 10
277.5937003556
 20
-36.6311186417
 10
276.6231237039
 20
-36.7572257704
 10
275.677535027
 20
-36.8007345658
 10
274.7605212665
 20
-36.761479984
 10
273.8755609698
 20
-36.6396109311
 10
273.0260110944
 20
-36.4355896982
 10
272.215094274
 20
-36.1501902077
 10
271.4458865938
 20
-35.7844950777
 10
271.2614184467
 20
-35.6812417637
  0
LINE
  5
12B
330
1F
100
AcDbEntity
  8
0
  6
Continuous
 62
     7
370
    25
100
AcDbLine
 10
114.8323425481
 20
-2.5585228216
 30
0.0
 11
114.8323425481
 21
-51.5585228216
 31
0.0
  0
LINE
  5
12C
330
1F
100
AcDbEntity
  8
0
  6
Continuous
 62
     7
370
    25
100
AcDbLine
 10
164.8323425481
 20
-51.5585228216
 30
0.0
 11
164.8323425481
 21
-2.5585228216
 31
0.0
  0
LINE
  5
12D
330
1F
100
AcDbEntity
  8
0
  6
Continuous
 62
     7
370
    25
100
AcDbLine
 10
115.9323425481
 20
36.4414771784
 30
0.0
 11
115.9323425481
 21
36.2414771784
 31
0.0
  0
LINE
  5
12E
330
1F
100
AcDbEntity
  8
0
  6
Continuous
 62
     7
370
    25
100
AcDbLine
 10
163.7323425481
 20
36.2414771784
 30
0.0
 11
163.7323425481
 21
36.4414771784
 31
0.0
  0
LINE
  5
12F
330
1F
100
AcDbEntity
  8
0
  6
Continuous
 62
     7
370
    25
100
AcDbLine
 10
115.9323425481
 20
36.2414771784
 30
0.0
 11
117.6643933556
 21
35.2414771784
 31
0.0
  0
LINE
  5
130
330
1F
100
AcDbEntity
  8
0
  6
Continuous
 62
     7
370
    25
100
AcDbLine
 10
162.0002917405
 20
35.2414771784
 30
0.0
 11
163.7323425481
 21
36.2414771784
 31
0.0
  0
LINE
  5
131
330
1F
100
AcDbEntity
  8
0
  6
Continuous
 62
     7
370
    25
100
AcDbLine
 10
163.7323425481
 20
34.2414771784
 30
0.0
 11
162.0002917405
 21
35.2414771784
 31
0.0
  0
LINE
  5
132
330
1F
100
AcDbEntity
  8
0
  6
Continuous
 62
     7
370
    25
100
AcDbLine
 10
117.6643933556
 20
35.2414771784
 30
0.0
 11
115.9323425481
 21
34.2414771784
 31
0.0
  0
LINE
  5
133
330
1F
100
AcDbEntity
  8
0
  6
Continuous
 62
     7
370
    25
100
AcDbLine
 10
115.9323425481
 20
34.2414771784
 30
0.0
 11
117.6643933556
 21
33.2414771784
 31
0.0
  0
LINE
  5
134
330
1F
100
AcDbEntity
  8
0
  6
Continuous
 62
     7
370
    25
100
AcDbLine
 10
162.0002917405
 20
33.2414771784
 30
0.0
 11
163.7323425481
 21
34.2414771784
 31
0.0
  0
LINE
  5
135
330
1F
100
AcDbEntity
  8
0
  6
Continuous
 62
     7
370
    25
100
AcDbLine
 10
163.7323425481
 20
32.2414771784
 30
0.0
 11
162.0002917405
 21
33.2414771784
 31
0.0
  0
LINE
  5
136
330
1F
100
AcDbEntity
  8
0
  6
Continuous
 62
     7
370
    25
100
AcDbLine
 10
117.6643933556
 20
33.2414771784
 30
0.0
 11
115.9323425481
 21
32.2414771784
 31
0.0
  0
LINE
  5
137
330
1F
100
AcDbEntity
  8
0
  6
Continuous
 62
     7
370
    25
100
AcDbLine
 10
115.9323425481
 20
32.2414771784
 30
0.0
 11
117.6643933556
 21
31.2414771784
 31
0.0
  0
LINE
  5
138
330
1F
100
AcDbEntity
  8
0
  6
Continuous
 62
     7
370
    25
100
AcDbLine
 10
162.0002917405
 20
31.2414771784
 30
0.0
 11
163.7323425481
 21
32.2414771784
 31
0.0
  0
LINE
  5
139
330
1F
100
AcDbEntity
  8
0
  6
Continuous
 62
     7
370
    25
100
AcDbLine
 10
163.7323425481
 20
30.2414771784
 30
0.0
 11
162.0002917405
 21
31.2414771784
 31
0.0
  0
LINE
  5
13A
330
1F
100
AcDbEntity
  8
0
  6
Continuous
 62
     7
370
    25
100
AcDbLine
 10
117.6643933556
 20
31.2414771784
 30
0.0
 11
115.9323425481
 21
30.2414771784
 31
0.0
  0
LINE
  5
13B
330
1F
100
AcDbEntity
  8
0
  6
Continuous
 62
     7
370
    25
100
AcDbLine
 10
115.9323425481
 20
30.2414771784
 30
0.0
 11
115.9323425481
 21
13.4414771784
 31
0.0
  0
LINE
  5
13C
330
1F
100
AcDbEntity
  8
0
  6
Continuous
 62
     7
370
    25
100
AcDbLine
 10
163.7323425481
 20
13.4414771784
 30
0.0
 11
163.7323425481
 21
30.2414771784
 31
0.0
  0
LINE
  5
13D
330
1F
100
AcDbEntity
  8
0
  6
Continuous
 62
     7
370
    25
100
AcDbLine
 10
172.3323425481
 20
-2.5585228216
 30
0.0
 11
172.3323425481
 21
13.4414771784
 31
0.0
  0
LINE
  5
13E
330
1F
100
AcDbEntity
  8
0
  6
Continuous
 62
     7
370
    25
100
AcDbLine
 10
139.8323425481
 20
-2.5585228216
 30
0.0
 11
172.3323425481
 21
-2.5585228216
 31
0.0
  0
LINE
  5
13F
330
1F
100
AcDbEntity
  8
0
  6
Continuous
 62
     7
370
    25
100
AcDbLine
 10
139.8323425481
 20
-2.5585228216
 30
0.0
 11
139.8323425481
 21
13.4414771784
 31
0.0
  0
LINE
  5
140
330
1F
100
AcDbEntity
  8
0
  6
Continuous
 62
     7
370
    25
100
AcDbLine
 10
172.3323425481
 20
13.4414771784
 30
0.0
 11
139.8323425481
 21
13.4414771784
 31
0.0
  0
LINE
  5
141
330
1F
100
AcDbEntity
  8
0
  6
Continuous
 62
     7
370
    25
100
AcDbLine
 10
107.3323425481
 20
-2.5585228216
 30
0.0
 11
139.8323425481
 21
-2.5585228216
 31
0.0
  0
LINE
  5
142
330
1F
100
AcDbEntity
  8
0
  6
Continuous
 62
     7
370
    25
100
AcDbLine
 10
107.3323425481
 20
-2.5585228216
 30
0.0
 11
107.3323425481
 21
13.4414771784
 31
0.0
  0
LINE
  5
143
330
1F
100
AcDbEntity
  8
0
  6
Continuous
 62
     7
370
    25
100
AcDbLine
 10
139.8323425481
 20
13.4414771784
 30
0.0
 11
107.3323425481
 21
13.4414771784
 31
0.0
  0
LINE
  5
144
330
1F
100
AcDbEntity
  8
0
  6
Continuous
 62
     7
370
    25
100
AcDbLine
 10
114.8323425481
 20
-51.5585228216
 30
0.0
 11
164.8323425481
 21
-51.5585228216
 31
0.0
  0
LINE
  5
145
330
1F
100
AcDbEntity
  8
0
  6
Continuous
 62
     7
370
    25
100
AcDbLine
 10
115.9323425481
 20
36.2414771784
 30
0.0
 11
163.7323425481
 21
36.2414771784
 31
0.0
  0
LINE
  5
146
330
1F
100
AcDbEntity
  8
0
  6
Continuous
 62
     7
370
    25
100
AcDbLine
 10
115.9323425481
 20
36.4414771784
 30
0.0
 11
163.7323425481
 21
36.4414771784
 31
0.0
  0
LINE
  5
147
330
1F
100
AcDbEntity
  8
0
  6
Continuous
 62
     7
370
    25
100
AcDbLine
 10
117.6643933556
 20
35.2414771784
 30
0.0
 11
162.0002917405
 21
35.2414771784
 31
0.0
  0
LINE
  5
148
330
1F
100
AcDbEntity
  8
0
  6
Continuous
 62
     7
370
    25
100
AcDbLine
 10
115.9323425481
 20
34.2414771784
 30
0.0
 11
163.7323425481
 21
34.2414771784
 31
0.0
  0
LINE
  5
149
330
1F
100
AcDbEntity
  8
0
  6
Continuous
 62
     7
370
    25
100
AcDbLine
 10
117.6643933556
 20
33.2414771784
 30
0.0
 11
162.0002917405
 21
33.2414771784
 31
0.0
  0
LINE
  5
14A
330
1F
100
AcDbEntity
  8
0
  6
Continuous
 62
     7
370
    25
100
AcDbLine
 10
115.9323425481
 20
32.2414771784
 30
0.0
 11
163.7323425481
 21
32.2414771784
 31
0.0
  0
LINE
  5
14B
330
1F
100
AcDbEntity
  8
0
  6
Continuous
 62
     7
370
    25
100
AcDbLine
 10
117.6643933556
 20
31.2414771784
 30
0.0
 11
162.0002917405
 21
31.2414771784
 31
0.0
  0
LINE
  5
14C
330
1F
100
AcDbEntity
  8
0
  6
Continuous
 62
     7
370
    25
100
AcDbLine
 10
115.9323425481
 20
30.2414771784
 30
0.0
 11
163.7323425481
 21
30.2414771784
 31
0.0
  0
ENDSEC
  0
SECTION
  2
OBJECTS
  0
DICTIONARY
  5
C
330
0
100
AcDbDictionary
281
     1
  3
ACAD_GROUP
350
D
  3
ACAD_LAYOUT
350
1A
  3
ACAD_MLINESTYLE
350
17
  3
ACAD_PLOTSETTINGS
350
19
  3
ACAD_PLOTSTYLENAME
350
E
  3
ACAD_SCALELIST
350
47
  3
DWGPROPS
350
14D
  0
DICTIONARY
  5
D
102
{ACAD_REACTORS
330
C
102
}
330
C
100
AcDbDictionary
281
     1
  0
DICTIONARY
  5
1A
102
{ACAD_REACTORS
330
C
102
}
330
C
100
AcDbDictionary
281
     1
  3
Layout1
350
1E
  3
Layout2
350
26
  3
Model
350
22
  0
DICTIONARY
  5
17
102
{ACAD_REACTORS
330
C
102
}
330
C
100
AcDbDictionary
281
     1
  3
Standard
350
18
  0
DICTIONARY
  5
19
102
{ACAD_REACTORS
330
C
102
}
330
C
100
AcDbDictionary
281
     1
  0
ACDBDICTIONARYWDFLT
  5
E
102
{ACAD_REACTORS
330
C
102
}
330
C
100
AcDbDictionary
281
     1
  3
Normal
350
F
100
AcDbDictionaryWithDefault
340
F
  0
DICTIONARY
  5
47
102
{ACAD_REACTORS
330
C
102
}
330
C
100
AcDbDictionary
281
     1
  3
A0
350
48
  3
A1
350
49
  3
A2
350
4A
  3
A3
350
4B
  3
A4
350
4C
  3
A5
350
4D
  3
A6
350
4E
  3
A7
350
4F
  3
A8
350
50
  3
A9
350
51
  3
B0
350
52
  3
B1
350
53
  3
B2
350
54
  3
B3
350
55
  3
B4
350
56
  3
B5
350
57
  3
B6
350
58
  3
B7
350
59
  3
B8
350
5A
  3
B9
350
5B
  3
C0
350
5C
  3
C1
350
5D
  3
C2
350
5E
  3
C3
350
5F
  3
C4
350
60
  3
C5
350
61
  3
C6
350
62
  3
C7
350
63
  3
C8
350
64
  3
C9
350
65
  3
D0
350
66
  3
D1
350
67
  3
D2
350
68
  0
XRECORD
  5
14D
102
{ACAD_REACTORS
330
C
102
}
330
C
100
AcDbXrecord
280
     1
  1
DWGPROPS COOKIE
  2

  3

  4

  6

  7

  8
b.kav
  9

300
=
301
=
302
=
303
=
304
=
305
=
306
=
307
=
308
=
309
=
 40
0.0
 41
2459935.584202674
 42
2459935.584202928
  1

 90
        0
  0
LAYOUT
  5
1E
102
{ACAD_REACTORS
330
1A
102
}
330
1A
100
AcDbPlotSettings
  1

  2
none_device
  4

  6

 40
0.0
 41
0.0
 42
0.0
 43
0.0
 44
0.0
 45
0.0
 46
0.0
 47
0.0
 48
0.0
 49
0.0
140
0.0
141
0.0
142
1.0
143
1.0
 70
   688
 72
     1
 73
     0
 74
     5
  7

 75
    16
147
1.0
148
0.0
149
0.0
100
AcDbLayout
  1
Layout1
 70
     1
 71
     1
 10
0.0
 20
0.0
 11
420.0
 21
297.0
 12
0.0
 22
0.0
 32
0.0
 14
1.0000000000E+20
 24
1.0000000000E+20
 34
1.0000000000E+20
 15
-1.0000000000E+20
 25
-1.0000000000E+20
 35
-1.0000000000E+20
146
0.0
 13
0.0
 23
0.0
 33
0.0
 16
1.0
 26
0.0
 36
0.0
 17
0.0
 27
1.0
 37
0.0
 76
     0
330
1B
  0
LAYOUT
  5
26
102
{ACAD_REACTORS
330
1A
102
}
330
1A
100
AcDbPlotSettings
  1

  2
none_device
  4

  6

 40
0.0
 41
0.0
 42
0.0
 43
0.0
 44
0.0
 45
0.0
 46
0.0
 47
0.0
 48
0.0
 49
0.0
140
0.0
141
0.0
142
1.0
143
1.0
 70
   688
 72
     1
 73
     0
 74
     5
  7

 75
    16
147
1.0
148
0.0
149
0.0
100
AcDbLayout
  1
Layout2
 70
     1
 71
     2
 10
0.0
 20
0.0
 11
0.0
 21
0.0
 12
0.0
 22
0.0
 32
0.0
 14
0.0
 24
0.0
 34
0.0
 15
0.0
 25
0.0
 35
0.0
146
0.0
 13
0.0
 23
0.0
 33
0.0
 16
1.0
 26
0.0
 36
0.0
 17
0.0
 27
1.0
 37
0.0
 76
     0
330
23
  0
LAYOUT
  5
22
102
{ACAD_REACTORS
330
1A
102
}
330
1A
100
AcDbPlotSettings
  1

  2
none_device
  4
Letter_(8.50_x_11.00_Inches)
  6

 40
6.35
 41
6.35
 42
6.35000508
 43
6.35000508
 44
215.9
 45
279.4
 46
0.0
 47
0.0
 48
0.0
 49
0.0
140
0.0
141
0.0
142
1.0
143
1.0
 70
  1712
 72
     1
 73
     0
 74
     0
  7

 75
     0
147
1.0
148
0.0
149
0.0
100
AcDbLayout
  1
Model
 70
     1
 71
     0
 10
0.0
 20
0.0
 11
279.4
 21
215.9
 12
0.0
 22
0.0
 32
0.0
 14
0.0
 24
0.0
 34
0.0
 15
279.4
 25
215.9
 35
0.0
146
0.0
 13
0.0
 23
0.0
 33
0.0
 16
1.0
 26
0.0
 36
0.0
 17
0.0
 27
1.0
 37
0.0
 76
     0
330
1F
331
29
  0
MLINESTYLE
  5
18
102
{ACAD_REACTORS
330
17
102
}
330
17
100
AcDbMlineStyle
  2
Standard
 70
     0
  3

 62
   256
 51
90.0
 52
90.0
 71
     2
 49
0.5
 62
   256
  6
BYLAYER
 49
-0.5
 62
   256
  6
BYLAYER
  0
ACDBPLACEHOLDER
  5
F
102
{ACAD_REACTORS
330
E
102
}
330
E
  0
SCALE
  5
48
102
{ACAD_REACTORS
330
47
102
}
330
47
100
AcDbScale
 70
     0
300
1:1
140
1.0
141
1.0
290
     1
  0
SCALE
  5
49
102
{ACAD_REACTORS
330
47
102
}
330
47
100
AcDbScale
 70
     0
300
1:2
140
1.0
141
2.0
290
     0
  0
SCALE
  5
4A
102
{ACAD_REACTORS
330
47
102
}
330
47
100
AcDbScale
 70
     0
300
1:4
140
1.0
141
4.0
290
     0
  0
SCALE
  5
4B
102
{ACAD_REACTORS
330
47
102
}
330
47
100
AcDbScale
 70
     0
300
1:5
140
1.0
141
5.0
290
     0
  0
SCALE
  5
4C
102
{ACAD_REACTORS
330
47
102
}
330
47
100
AcDbScale
 70
     0
300
1:8
140
1.0
141
8.0
290
     0
  0
SCALE
  5
4D
102
{ACAD_REACTORS
330
47
102
}
330
47
100
AcDbScale
 70
     0
300
1:10
140
1.0
141
10.0
290
     0
  0
SCALE
  5
4E
102
{ACAD_REACTORS
330
47
102
}
330
47
100
AcDbScale
 70
     0
300
1:16
140
1.0
141
16.0
290
     0
  0
SCALE
  5
4F
102
{ACAD_REACTORS
330
47
102
}
330
47
100
AcDbScale
 70
     0
300
1:20
140
1.0
141
20.0
290
     0
  0
SCALE
  5
50
102
{ACAD_REACTORS
330
47
102
}
330
47
100
AcDbScale
 70
     0
300
1:30
140
1.0
141
30.0
290
     0
  0
SCALE
  5
51
102
{ACAD_REACTORS
330
47
102
}
330
47
100
AcDbScale
 70
     0
300
1:40
140
1.0
141
40.0
290
     0
  0
SCALE
  5
52
102
{ACAD_REACTORS
330
47
102
}
330
47
100
AcDbScale
 70
     0
300
1:50
140
1.0
141
50.0
290
     0
  0
SCALE
  5
53
102
{ACAD_REACTORS
330
47
102
}
330
47
100
AcDbScale
 70
     0
300
1:100
140
1.0
141
100.0
290
     0
  0
SCALE
  5
54
102
{ACAD_REACTORS
330
47
102
}
330
47
100
AcDbScale
 70
     0
300
2:1
140
2.0
141
1.0
290
     0
  0
SCALE
  5
55
102
{ACAD_REACTORS
330
47
102
}
330
47
100
AcDbScale
 70
     0
300
4:1
140
4.0
141
1.0
290
     0
  0
SCALE
  5
56
102
{ACAD_REACTORS
330
47
102
}
330
47
100
AcDbScale
 70
     0
300
8:1
140
8.0
141
1.0
290
     0
  0
SCALE
  5
57
102
{ACAD_REACTORS
330
47
102
}
330
47
100
AcDbScale
 70
     0
300
10:1
140
10.0
141
1.0
290
     0
  0
SCALE
  5
58
102
{ACAD_REACTORS
330
47
102
}
330
47
100
AcDbScale
 70
     0
300
100:1
140
100.0
141
1.0
290
     0
  0
SCALE
  5
59
102
{ACAD_REACTORS
330
47
102
}
330
47
100
AcDbScale
 70
     0
300
1/128" = 1'-0"
140
0.0078125
141
12.0
290
     0
  0
SCALE
  5
5A
102
{ACAD_REACTORS
330
47
102
}
330
47
100
AcDbScale
 70
     0
300
1/64" = 1'-0"
140
0.015625
141
12.0
290
     0
  0
SCALE
  5
5B
102
{ACAD_REACTORS
330
47
102
}
330
47
100
AcDbScale
 70
     0
300
1/32" = 1'-0"
140
0.03125
141
12.0
290
     0
  0
SCALE
  5
5C
102
{ACAD_REACTORS
330
47
102
}
330
47
100
AcDbScale
 70
     0
300
1/16" = 1'-0"
140
0.0625
141
12.0
290
     0
  0
SCALE
  5
5D
102
{ACAD_REACTORS
330
47
102
}
330
47
100
AcDbScale
 70
     0
300
3/32" = 1'-0"
140
0.09375
141
12.0
290
     0
  0
SCALE
  5
5E
102
{ACAD_REACTORS
330
47
102
}
330
47
100
AcDbScale
 70
     0
300
1/8" = 1'-0"
140
0.125
141
12.0
290
     0
  0
SCALE
  5
5F
102
{ACAD_REACTORS
330
47
102
}
330
47
100
AcDbScale
 70
     0
300
3/16" = 1'-0"
140
0.1875
141
12.0
290
     0
  0
SCALE
  5
60
102
{ACAD_REACTORS
330
47
102
}
330
47
100
AcDbScale
 70
     0
300
1/4" = 1'-0"
140
0.25
141
12.0
290
     0
  0
SCALE
  5
61
102
{ACAD_REACTORS
330
47
102
}
330
47
100
AcDbScale
 70
     0
300
3/8" = 1'-0"
140
0.375
141
12.0
290
     0
  0
SCALE
  5
62
102
{ACAD_REACTORS
330
47
102
}
330
47
100
AcDbScale
 70
     0
300
1/2" = 1'-0"
140
0.5
141
12.0
290
     0
  0
SCALE
  5
63
102
{ACAD_REACTORS
330
47
102
}
330
47
100
AcDbScale
 70
     0
300
3/4" = 1'-0"
140
0.75
141
12.0
290
     0
  0
SCALE
  5
64
102
{ACAD_REACTORS
330
47
102
}
330
47
100
AcDbScale
 70
     0
300
1" = 1'-0"
140
1.0
141
12.0
290
     0
  0
SCALE
  5
65
102
{ACAD_REACTORS
330
47
102
}
330
47
100
AcDbScale
 70
     0
300
1-1/2" = 1'-0"
140
1.5
141
12.0
290
     0
  0
SCALE
  5
66
102
{ACAD_REACTORS
330
47
102
}
330
47
100
AcDbScale
 70
     0
300
3" = 1'-0"
140
3.0
141
12.0
290
     0
  0
SCALE
  5
67
102
{ACAD_REACTORS
330
47
102
}
330
47
100
AcDbScale
 70
     0
300
6" = 1'-0"
140
6.0
141
12.0
290
     0
  0
SCALE
  5
68
102
{ACAD_REACTORS
330
47
102
}
330
47
100
AcDbScale
 70
     0
300
1'-0" = 1'-0"
140
12.0
141
12.0
290
     0
  0
ENDSEC
  0
EOF
